Song name
# A B C D E F G H I J K L M N O P Q R S T U V W X Y Z

Graham Coxon - Dont Think About Always tab

Help us improve GuitareTab! Take a short survey!
Artist: GRAHAM COXON
Song: DON'T THINK ABOUT ALWAYS
Album: THE GOLDEN D
Tuning: STANDARD
Tabbed By: INDIE NATION

intro/verse
|------------------------------------|-------------------------------------|
|------------------------------------|-------------------------------------|
|------------------------------------|-------------------------------------|
|-----6-------8-------6-------7------|------6-------8--------6--------7----|
|---7---7---9---9---7---7---5---5----|----7---7---9---9----7---7----5---5--|
|-0-------0-------0-------0----------|--0-------0--------0--------0--------|

|-----------------------------|---------------------------------|
|-----------------------------|---------------------------------|
|-----------------------------|---------------------------------|
|-----2---------4-------6-----|------2-------4-----4/6----------|
|---3---3-----5---5---7----7--|----3---3/--5----5--5/7----------|
|-0--------0--------0---------|--0-----------------0-0----------|


E5  F#5  E5  D5- repeat a few times with tons of distortion


 C5    E5             G5  E5
------------------------------------------|
------------------------------------------|
------------------------------------------|
-10----2---------------5--2---------------|
-10----2---7--9--10~---5--2-----7--5--7---|
-8-----0---------------3--0---------------|


E5  F#5  E5  D5- repeat a few times

 C5    E5             G5  E5
|-----------------------------------------|
|-----------------------------------------|
|-----------------------------------------|
|-10----2---------------5--2--------------|
|-10----2---7--9--10~---5--2-----7--5--7--|
|-8-----0---------------3--0--------------|

Really heavy bit
 C5    E5             G5  E5
|-----------------------------------------------------|
|-----------------------------------------------------|
|-----------------------0-----------------------------|
|-5----4---7b9----5--4--1---2--2----------------------|
|-5----4---7b9----5--4--1---2--2----------------------|
|-3----2---5------3--2------0--0---0--3b--0--3b-0-----|

theres so much distortion in this song so link up about 3 RAT
pedals in series with plenty of amp distortion thrown in.
Related for Dont Think About Always tab