Song name
# A B C D E F G H I J K L M N O P Q R S T U V W X Y Z

Graham Coxon - Singing In The Morning tab

Help us improve GuitareTab! Take a short survey!
Tabbed by arthigan (jim)

./palm mute
~/let ring
b/bend
x/scratch


INTRO

e---------------------------------------------------------------------|
b---------------------------------------------------------------------|
g------------------------555---------------------------999------------|
d---------9-11--11-7--7--555------------9-11--11-7--7--999------------|
a-----9-11-------------------------9-11-------------------------------|
E--11---------------------------11------------------------------------|

e------------------------7-7--7-7-7-7777------------------------------|
b------------------------7-7--7-7-7-7777------------------------------|
g------------------------9-9--7-7-7-7777------------------------------|
d-----------9-11-7b--7b--9-9--9-9-9-9999------------------------------|
a-----9--11--------------7-7--9-9-9-9999------------------------------|
E--11--------------------7-7--7-7-7-7777------------------------------|

VERSE x2 (listen for rythme)

e--7-7-7-7-7-7-7-7-7-7-7-------------10-10-10-10-10-10----------------|
b--7-7-7-7-7-7-7-7-7-7-7-------------10-10-10-10-10-10----------------|
g--7-7-7-7-7-7-7-7-7-7-7-------------10-10-10-10-10-10----------------|
d--9-9-9-9-9-9-9-9-9-9-9-(continue)--12-12-12-12-12-12----------------|
a--9-9-9-9-9-9-9-9-9-9-9-------------12-12-12-12-12-12----------------|
E--7-7-7-7-7-7-7-7-7-7-7-------------10-10-10-10-10-10----------------|
   . . . . . . . . . . .              .  .  .  .  .  .

BRIDGE (listen for rythme)

e--5-5-5-5--3-3-3-3--5-5-5-5--3-3-3-3--5-5-5-5--2-2-2-2--5-5-5--7-7---|
b--5-5-5-5--3-3-3-3--5-5-5-5--3-3-3-3--5-5-5-5--2-2-2-2--5-5-5--7-7---|
g--5-5-5-5--3-3-3-3--5-5-5-5--3-3-3-3--5-5-5-5--2-2-2-2--7-7-7--9-9---|
d--7-7-7-7--5-5-5-5--7-7-7-7--5-5-5-5--7-7-7-7--4-4-4-4--7-7-7--9-9---|
a--7-7-7-7--5-5-5-5--7-7-7-7--5-5-5-5--7-7-7-7--4-4-4-4--5-5-5--7-7---|
E--5-5-5-5--3-3-3-3--5-5-5-5--3-3-3-3--5-5-5-5--2-2-2-2--5-5-5--7-7---|

VERSE x2

BRIDGE x1

CHORUS (listen for rythme)

e--77-77-77--5--5--3-3-3--2-2-2---------------------------------------|
b--77-77-77--5--5--3-3-3--2-2-2---------------------------------------|
g--77-77-77--5--5--3-3-3--2-2-2---------------------------------------|
d--99-99-99--7--7--3-5-5--4-4-4---------------------------------------|
a--99-99-99--7--7--5-5-5--4-4-4---------------------------------------|
E--77-77-77--5--5--3-3-3--2-2-2---------------------------------------|


e--77-77-77--5--5--3-3-3--2-2-2--7777----7---7---7---7---7b-xxxx------|
b--77-77-77--5--5--3-3-3--2-2-2--7777--7---7---7---7---7-7b-xxxx------|
g--77-77-77--5--5--3-3-3--2-2-2--7777-----------------------xxxx------|
d--99-99-99--7--7--5-5-5--4-4-4--9999-----------------------xxxx------|
a--99-99-99--7--7--5-5-5--4-4-4--9999-----------------------xxxx------|
E--77-77-77--5--5--3-3-3--4-4-4--7777-----------------------xxxx------|


VERSE x2

BRIDGE x1

CHORUS

e--77-77-77--5--5--3-3-3--2-2-2---------------------------------------|
b--77-77-77--5--5--3-3-3--2-2-2---------------------------------------|
g--77-77-77--5--5--3-3-3--2-2-2---------------------------------------|
d--99-99-99--7--7--3-5-5--4-4-4---------------------------------------|
a--99-99-99--7--7--5-5-5--4-4-4---------------------------------------|
E--77-77-77--5--5--3-3-3--2-2-2---------------------------------------|

e--77-77-77--5--5--3-3-3--2-2-2--3-3-3--2-2-2----7---7---7---7---7b---|
b--77-77-77--5--5--3-3-3--2-2-2--3-3-3--2-2-2--7---7---7---7---7-7b---|
g--77-77-77--5--5--3-3-3--2-2-2--3-3-3--2-2-2-------------------------|
d--99-99-99--7--7--5-5-5--4-4-4--5-5-5--4-4-4-------------------------|
a--99-99-99--7--7--5-5-5--4-4-4--5-5-5--4-4-4-------------------------|
E--77-77-77--5--5--3-3-3--4-4-4--3-3-3--2-2-2-------------------------|

INTRO x2

e---------------------------------------------------------------------|
b---------------------------------------------------------------------|
g------------------------555---------------------------999------------|
d---------9-11--11-7--7--555------------9-11--11-7--7--999------------|
a-----9-11-------------------------9-11-------------------------------|
E--11---------------------------11------------------------------------|

e------------------------7-7--7-7-7-7777------------------------------|
b------------------------7-7--7-7-7-7777------------------------------|
g------------------------9-9--7-7-7-7777------------------------------|
d-----------9-11-7b--7b--9-9--9-9-9-9999------------------------------|
a-----9--11--------------7-7--9-9-9-9999------------------------------|
E--11--------------------7-7--7-7-7-7777------------------------------|

CHORUS

e--77-77-77--5--5--3-3-3--2-2-2---------------------------------------|
b--77-77-77--5--5--3-3-3--2-2-2---------------------------------------|
g--77-77-77--5--5--3-3-3--2-2-2---------------------------------------|
d--99-99-99--7--7--3-5-5--4-4-4---------------------------------------|
a--99-99-99--7--7--5-5-5--4-4-4---------------------------------------|
E--77-77-77--5--5--3-3-3--2-2-2---------------------------------------|

e--77-77-77--5--5--3-3-3--2-2-2--3-3-3--2-2-2----7---7---7---7---7b---|
b--77-77-77--5--5--3-3-3--2-2-2--3-3-3--2-2-2--7---7---7---7---7-7b---|
g--77-77-77--5--5--3-3-3--2-2-2--3-3-3--2-2-2-------------------------|
d--99-99-99--7--7--5-5-5--4-4-4--5-5-5--4-4-4-------------------------|
a--99-99-99--7--7--5-5-5--4-4-4--5-5-5--4-4-4-------------------------|
E--77-77-77--5--5--3-3-3--4-4-4--3-3-3--2-2-2-------------------------|

OUTRO

e--77---------------5--77--------------5--77--------------5--7--------|
b--77---------------5--77--------------5--77--------------5--7--------|
g--77------7-----7--7--77-----7-----7--7--77-----7-----7--7--9--------|
d--99--9b----9b-----7--99--9b----9b----7--99--9b----9b----7--9--------|
a--99---------------5--99--------------5--99--------------5--7--------|
E--77---------------5--77--------------5--77--------------5--7--------|

WE LOVE GRAHAM COXON !!!

CHEERS!
Related for Singing In The Morning tab