Song name
# A B C D E F G H I J K L M N O P Q R S T U V W X Y Z

Graham Greer - To Whom It May Concer tab

-------------------------------------------------------------------------------
			     SONG NAME - Band Name
-------------------------------------------------------------------------------
Tabbed by: 21stCenturyMan
Email: Michael_Harris1@live.ca

Tuning: Capo 1, Standard

Intro:

Guitar 1:
e|-------------------------------------------------------------------------|
B|-------------------------------------------------------------------------|
G|-------------------------------------------------------------------------|
D|-----2p0---0h2-0-----2p0----0h2------2p0----0h2-0----2p0-----------------|
A|--3------3--------3------3---------3-----3---------3------2--------------|
E|----------------------------------------------------------3--------------|


e|---------------------------------------------------------------------------|
B|--------------------------------------------------------------1------------|
G|--------------------------------------------------------------0------------|
D|-----2p0---0h2-0-----2p0----0h2------2p0----0h2-0----2p0-2p0--2------------|
A|--3------3--------3------3---------3-----3---------3----------3------------|
E|---------------------------------------------------------------------------|


Guitar 2: (Start on first repeat)
e|---------8s10s8-------------------8s10s8---------------------------------|
B|--8p6p5----------8p6p5-6s8--8p6p5-----------8s10s8-----------------------|
G|------------------------------------------5------------------------------|
D|-------------------------------------------------------------------------|
A|-------------------------------------------------------------------------|
E|-------------------------------------------------------------------------|

e|---------8s10s8-------------------8s10s8---------------------------------|
B|--8p6p5----------8p6p5-6s8--8p6p5----------5b-br-------------------------|
G|-----------------------------------------5-------------------------------|
D|-------------------------------------------------------------------------|
A|-------------------------------------------------------------------------|
E|-------------------------------------------------------------------------|

Chords:

F                                                  C
Farmer, Carver, Patron friend and a dent is hardly made

F                                                        C
So much you've given to the three, too much to ever be repaid

F                                         C
There when fortune smiled and in times of need

G                F      G              F
Providers of the tools, to make a self believe

G              F
Thanks for the things you've helped us learn... To whom it may concern

Intro

F                                      C
And to you the unthanked, unsung until now

F                                                C
I can only hope these words make up for that somehow

F                                 C
You put yours aside, and let mine lead

G                      F   G                   C
But you've shared with me, more than I'll ever need

          G                  F
So all my love and thanks in turn... To whom it may concern



The ending is just the intro replayed ending with:

e|------------------|
B|----------------1-|
G|----------------0-|
D|-----2p0--2h3---2-|
A|---3------------3-|
E|------------------|

One trick Graham likes to do is play around with his chords as follows:

For C he removes the E note so you get

e|--0-|     e|----|
B|--1-|     B|--1-|
G|--0-|     G|--0-|
D|--2-| to  D|--0-|
A|--3-|     A|--3-|
E|----|     E|----|

For F he takes off the A note in the same way so it's:

e|--1-|     e|--1-|
B|--2-|     B|--1-|
G|--3-|     G|--0-|
D|--3-| to  D|--3-|
A|----|     A|----|
E|----|     E|----|


Graham does some hammer-ons and pull-offs with the above chords so you can listen to the 
song / play around until it works for you.

Enjoy!

http://grahamgreer.com/


************************************

| /   slide up
| \   slide down
| h   hammer-on
| p   pull-off
| ~   vibrato
| +   harmonic
| x   Mute note
| b   Bend
| pb  Pre-bend
| br  Bend release
| pbr Pre-bend release
| brb Bend release bend

************************************
Tap to rate this tab
# A B C D E F G H I J K L M N O P Q R S T U V W X Y Z