Song name
# A B C D E F G H I J K L M N O P Q R S T U V W X Y Z

Graham Nash - And So It Goes tab

Help us improve GuitareTab! Take a short survey!
And So It Goes  - Billy Joel
~~~~~~~~~~~~~~
Cover by Tommy Emmanuel
Tab submitted by: Harold Schaefer
Email: schaefeh_19440@yahoo.com

I tabbed this out as a way to learn the song myself. The tab is not exact to how Tommy
covers this song, but it gives the basic song and you can embellish it with your own 
and ad libs.
Listen to Tommy playing it and go from there.

Capo 4th fret.


Tab Notes:
Tuning: Standard
h = hammer on
P = pull off
/ = slide
C+9 = Cadd9 (yes, I got lazy writing it out)

3/4 time.
Slowly, with rubato.

Song Format:
Intro
Verse
Verse
Chorus
Chorus
Bridge
Chorus2
Outro


INTRO & Verses:

    Em G G/B   C+9   G/B C+9 G/B,  Em    D/F#    G D/F# G G/B C+9 D/F#
||-----------|-0----------0------|------------|-----------------------|
||-----0--3--|-3------3---3---3--|-0----------|--0------0--3---3------|
||--0-----0--|-0------0---0---0--|--------2---|--0--2---0--0---0---2--|
||-----------|-2-----------------|-2------0---|--0--0---0--0---2---0--|
||--------2--|-3------2---3---2--|-2----------|------------2---3---0--|
||--0--3-----|-------------------|-0------2---|--3--2---3----------2--|


    Em G G/B  C+9   G/B C+9 G/B   Em    D/F#    G D/F# G G/B C+9  D/F# G
||-----------|-0---------0------|------------|---------------------------|
||-----0--3--|-3-----3---3---3--|-0----------|--0------0--3---3--0-------|
||--0-----0--|-0-----0---0---0--|--------2---|--0--2---0--0---0----2---0-|
||-----------|-2----------------|-2------0---|--0--0---0--0---2--------0-|
||--------2--|-3-----2---3---2--|-2----------|------------2---3--------2-|
||--0--3-----|------------------|-0------2---|--3--2---3-----------2---3-|


CHORUS:

       G                                      Em/C#         D Dsus4
||--------3--|-3---0-----|------------|-0-0------------------- 2h3p2-p0-0h2-|
||-----0h3---|-0-----3---|-1/3---1p0--|-----0-----------------3--------3----|
||--0--------|-0---------|---5---2----|--------2--0--2/4/2---2--------------|
||-----------|-3---------|---5---0----|-----2--2------------0---------------|
||-----------|-3---------|---6--------|--------4----------------------------|
||-----3-----|-1---------|------------|--------0----------------------------|

    Em G G/B   C+9    G  C+9
||-----------|--0---------0---|-2-/3----|
||-----0--3--|--3-----3---3---|---------|
||--0-----0--|--0-----0---0---|---------|
||-----------|--2---------2---|-1-/2----|
||--------2--|--3-----2---3---|---------|
||--0--3-----|----------------|-------0-|

    Em G G/B   C+9 Em G  C+9   G
||-----------|---------------|------|
||-----0--3--|-3------0------|------|
||--0-----0--|-0---0--0--2---|-0----|
||-----------|-2---2--0--0---|-0----|
||--------2--|-3---2--2--0---|-2----|
||--0--3-----|-----0--3--2---|-3----|

CHORUS2:

       G                                         D Dsus4       D/F#
||--------3--|-3---0-----|------------|-0-0------2h3p2-p0-0h2----2----|
||-----0h3---|-0-----3---|-1/3---1p0--|---------3---------------3-----|
||--0--------|-0---------|---5---2----|--------2---------------2------|
||-----------|-3---------|---5---0----|-------0---------------0-------|
||-----------|-3---------|---6--------|-------------------------------|
||-----3-----|-1---------|------------|----------------------------2--|

    Em G G/B   C+9    G  C+9
||-----------|--0---------0---|-2-/3----|
||-----0--3--|--3-----3---3---|---------|
||--0-----0--|--0-----0---0---|---------|
||-----------|--2---------2---|-1-/2----|
||--------2--|--3-----2---3---|---------|
||--0--3-----|----------------|-------0-|

    Em G G/B   C+9 Em G  C+9     G
||-----------|----------------|-------|
||-----0--3--|--3------0------|-------|
||--0-----0--|--0---0--0--2---|--0----|
||-----------|--2---2--0--0---|--0----|
||--------2--|--3---2--2--0---|--2----|
||--0--3-----|------0--3--2---|--3----|


BRIDGE: (finger roll)
     D/C        Cadd9 (play out over and over, add G and remove)
||-3---2---0--|--0----3----|
||-----3------|--3----3----|
||-----2------|--0----0----|
||-----4------|--2----2----|
||-----3------|--3----3----|
||------------|------------|

                          Cadd9   G
||-----------------0----|--0---------|
||--------------0h3-----|--3--p0--0--|
||------------0---------|--0------0--|
||----------4-----------|--2------0--|
||--------2-------------|--3------2--|
||--3-2-0---------------|---------3--|

    Em G G/B   C+9    G  C+9
||-----------|--0---------0---|-2-/3----|
||-----0--3--|--3-----3---3---|---------|
||--0-----0--|--0-----0---0---|---------|
||-----------|--2---------2---|-1-/2----|
||--------2--|--3-----2---3---|---------|
||--0--3-----|----------------|-------0-|


    Em G G/B   C+9 Em G  D/F#   G
||-----------|-----------------|------|
||-----0--3--|--3------0-------|------|
||--0-----0--|--0---0--0---2---|-0----|
||-----------|--2---2------0---|-0----|
||--------2--|--3---2------0---|-2----|
||--0--3-----|------0--3---2---|-3----|

OUTRO:

    Em G G/B   C+9    G  C+9
||-----------|--0---------0---|-2-/3----|
||-----0--3--|--3-----3---3---|---------|
||--0-----0--|--0-----0---0---|---------|
||-----------|--2---------2---|-1-/2----|
||--------2--|--3-----2---3---|---------|
||--0--3-----|----------------|-------0-|

    Em G G/B   C+9 Em G  C+9     G
||-----------|----------------|------3--|
||-----0--3--|--3------0------|-----0---|
||--0-----0--|--0---0--0--2---|----0----|
||-----------|--2---2-----0---|---0-----|
||--------2--|--3---2-----0---|--2------|
||--0--3-----|------0--3--2---|-3-------|
Related for And So It Goes tab