Guitaretab - guitar tabs
Song name
# A B C D E F G H I J K L M N O P Q R S T U V W X Y Z

Graham Nash - Simple Man tab

e |----------------------------------| part A
b |----------------------------------|
g |----------------------------------|
d |-----0h2----5p2-------------------|
a |---------------------5p2----------|
e |--0------0-------0--------3b-0----|


e |----------------| Part B
b |----------------|
g |----------------|
d |----------------|
a |--2-----2-------|
e |-----0-----0----|

[ Tab from: http://www.guitaretab.com/g/graham-nash/164766.html ]
e |------0-3b-0-----0-------------0-3b-0--------|Part C
b |--0h3--------0h3-----------0h3---------------|
g |---------------------------------------------|
d |---------------------5s2---------------------|
a |---------------------------------------------|
e |---------------------------------------------|

e |------0-3b-0-----0--------------3s7-3-0------|
b |--0h3--------0h3-----------0h3---------------|
g |---------------------------------------------|
d |--------------------5s2----------------------|
a |---------------------------------------------|
e |---------------------------------------------|




KEY:
h= hammer on
p= pull off
b= bend
s= slide

ORDER:
Part A x2
Part B
Part A x2
Part B
Part C
Related for Simple Man tab
Advertisement will be closed in 10 seconds