Song name
# A B C D E F G H I J K L M N O P Q R S T U V W X Y Z

Graham Nash - On The Line tab

-------------------------------------------------------------------------------
On The Line – Demi Lovato/Jonas Brothers
-------------------------------------------------------------------------------
Tabbed by: Optimus Prime

Tuning: Standard

e|---------8----------7----------5-------------------------------------------|
B|---------------------------------------------------------------------------|
G|-----9------9---7------7---5------5----------------------------------------|
D|---------------------------------------------------------------------------|
A|---------------------------------------------------------------------------|
E|---------------------------------------------------------------------------|
Play that 5 times with this next riff softly on guitar 2 the 4th time.

e|---------------------------------------------------------------------------|
B|---------------------------------------------------------------------------|
G|------5--5--4--5--4--7--5--7---7---9---------------------------------------|
D|---------------------------------------------------------------------------|
A|---------------------------------------------------------------------------|
E|---------------------------------------------------------------------------|

e|---------------------------------------------------------------------------|
B|---------------------------------------------------------------------------|
G|---------5—-4—-5--7--------------------------------------------------------|
D|---------------------------------------------------------------------------|
A|---------------------------------------------------------------------------|
E|---------------------------------------------------------------------------|
 Then play this transition to the chorus

For the chorus, play this.
e|---------------------------------------------------------------------------|
B|---------------------------------------------------------------------------|
G|------5--5--5--4----------------------------------5-5-5-5-5----------------|
D|------5--5--5--4----7--7--7--5----5--5--5--5-----------------5-3-2---------|
A|------3--3--3--2----7--7--7--5----5--5--5--5-------------------------------|
E|--------------------5--5--5--3----3--3--3--3-------------------------------|

e|---------------------------------------------------------------------------|
B|---------------------------------------------------------------------------|
G|------5—-5--5--4---------------------------------5-5-5-5-5----5-7-5--------|
D|------5--5--5--4----7--7--7--5----5--5--5--5---------------5---------------|
A|------3--3--3--2----7--7--7--5----5--5--5--5-------------------------------|
E|--------------------5--5--5--3----3--3--3--3-------------------------------|

e|---------------------------------------------------------------------------|
B|---------------------------------------------------------------------------|
G|------5--5--5--4---------------------------------5-5-5-5-5-----------------|
D|------5--5--5--4----7--7--7--5----5--5--5--5----------------5-3-2----------|
A|------3--3--3--2----7--7--7--5----5--5--5--5-------------------------------|
E|--------------------5--5--5--3----3--3--3--3-------------------------------|

e|---------------------------------------------------------------------------|
B|---------------------------------------------------------------------------|
G|---------------------------------------------------------------------------|
D|------7--7--7--7--7--7--7--7-----------------------------------------------|
A|------7--7--7--7--7--7--7--7-----------------------------------------------|
E|------5--5--5--5--5--5--5--5-----------------------------------------------|

e|---------------------------------------------------------------------------|
B|---------------------------------------------------------------------------|
G|------5--5---5--5----------------------------------------------------------|
D|------5--5---5--5----------------------------------------------------------|
A|---------------------------------------------------------------------------|
E|---------------------------------------------------------------------------|
And the second guitar plays this (listen to the song for the rhythm)

Then transition to the bridge with
e|---------------------------------------------------------------------------|
B|-------------1--3----------------------------------------------------------|
G|------2--4-----------------------------------------------------------------|
D|---------------------------------------------------------------------------|
A|---------------------------------------------------------------------------|
E|---------------------------------------------------------------------------|
Then play what the second guitar plays during the chorus four times, then this twice with that,
then you don’t play anything the last two times.

e|------------------------------------6—----5--3-5-3-1---3--1----------------|
B|---------------------------------------------------------------------------|
G|----5-------7------10------------------------------------------------------|
D|----5-------7------10------------------------------------------------------|
A|---------------------------------------------------------------------------|
E|---------------------------------------------------------------------------|

Then transition to the chorus with
e|---------------------------------------------------------------------------|
B|----------------1----------------------------------------------------------|
G|-------2---4---------------------------------------------------------------|
D|---------------------------------------------------------------------------|
A|---------------------------------------------------------------------------|
E|---------------------------------------------------------------------------|

Then play the chorus like before, then the intro again with the new lyrics, then this to 
into the chorus one more time, then on to the solo.
e|---------------------------------------------------------------------------|
B|--------8------------------------------------------------------------------|
G|---------------------------------------------------------------------------|
D|---------------------------------------------------------------------------|
A|---------------------------------------------------------------------------|
E|---------------------------------------------------------------------------|
Solo
e|---------------------------------------------------------------------------|
B|---------------------------------------------------------------------------|
G|----------------------------------------7--/12---9--7------7---------------|
D|------\2--3--5------2--3--5--7--7--10------------------10-----5------------|
A|----------------3----------------------------------------------------------|
E|---------------------------------------------------------------------------|

e|-----------------------------------------------------------------------|
B|---------------------------------------------------5-6-----5-6-8-8-/8--|
G|----------------------------4----4-5---4-5-7---5-7-----5-7-------------|
D|-------3-5--3-5--3-5-7--5-7----7-------------5-------------------------|
A|-3-5-7----7------------------------------------------------------------|
E|-----------------------------------------------------------------------|
Listen to the recording if you have it.
If you survived doing that, you’re a master, and you should proceed to play

e|---------------------------------------------------------------------------------|
B|---------------------------------------------------------------------------------|
G|------------------------4--5--7--------------------------------------------------|
D|---------------3--5--7-----------------------------------------------------------|
A|-----\3--5--7--------------------------------------------------------------------|
E|---------------------------------------------------------------------------------|
And now you’re done


| /  slide up
| \  slide down
| h  hammer-on
| p  pull-off
| ~  vibrato
| +  harmonic
| x  Mute note

Here are the lyrics for those who, like me, attempt to sing along.

Intro
	I didn’t want to say I’m sorry for breaking us apart
	I didn’t want to say it was my fault, even though
I knew it was
	I didn’t want to call you back, cuz I knew that I was wrong
Yeah I knew I was wrong
Chorus
	One and the same never to change our love was beautiful
	We got it all destined to fall our love was tragical
	Wanted to call no need to fight, you know I wouldn’t lie
	But tonight we’ll leave it on the line
Bridge
	Listen baby
	Never would have said forever if I knew it’d end so fast
	Why did you think I loved you if you knew that it wouldn’t last
	Baby I just can’t hear what you’re saying, the line is breaking up
	Or is that just us with the choices
Chorus
Intro 2
	I tried to call again I get your mailbox, like a letter left unread.
	Apologies are often open ended, but this one’s better left unsaid
Chorus
During Solo
	We’ll leave it on the line
	Yeah
	Oh yeah
	We’ll leave it on the line tonight
	Oo oo
Tap to rate this tab
# A B C D E F G H I J K L M N O P Q R S T U V W X Y Z