Song name
# A B C D E F G H I J K L M N O P Q R S T U V W X Y Z

Grails - Space Prophet Dogon tab

I did my best i think you'll get the general idea of it... part 3 is the violin 
more than the guitar but i thought id put it in there just incase...

part 1
E|----------------------------------------------|
B|----------------------------------------------|
D|----------------------------------------------|
G|--------------------9-7-6-4-2-----------------|
A|7~9-11~12-12-11-9-7-----------6-4-2-----------|
E|------------------------------------5-5-5-4-0-| 
part 2
E|----------------------------------------|
B|----------------------------------------|
D|----------------------------------------|
G|6~7-7-7-6-4-2-9-7-6-4-2-----------------|
A|------------------------6-4-2-----------|
E|------------------------------5-5-5-4-0-| 
part 3
E|4~5-5-5-4-2-0-7-5-4-2-0-----------------|
B|------------------------4-2-0-----------|
D|------------------------------2-2-2-1---|
G|--------------------------------------2-|
A|----------------------------------------|
E|----------------------------------------|
part 4
E|----------------------------------------|
B|----------------------------------------|
D|----------------------------------------|
G|----------------------------------------|
A|2-4-6-7-7-7-6-9-7-6-4-2---------7-------|
E|------------------------0-2-4-5---5-4-0-|
part 5
E|-------------------------------|
B|-------------------------------|
D|-4------------9----14----13----|
G|-------------------------------|
A|-------------------------------|
E|-------------------------------|
Tap to rate this tab
 
# A B C D E F G H I J K L M N O P Q R S T U V W X Y Z