Song name
# A B C D E F G H I J K L M N O P Q R S T U V W X Y Z

Gramm Lou - Midnight Blue tab

INTRO/VERSE
e------------------------------------------------------|
b--5--6-----5-5--6------6-6----3----6-6-----3---5---3--|
g--5--5-----5-5--5------5-5----4----3-3-----4---4---4--|
d--5--5-----5-5--5------3-3----5----3-3-----5---5---5--|
a--3--3-----3-3--3------3-3----3----3-3-----3---3---3--|
e------------------------------------------------------|
   C Csus4  C    Csus4  F     G7/C  Bb    G/C Cmaj7 G/C

CHORUS
e------------------------------------------------------|
b--5--------------------3---6---8-8--------------------|
g--5---------4--5-------0---5---7-7--------------------|
d--5---------5--5---3---0---3---5-5--------------------|
a--3---------3--3---3---x---3---5-5--------------------|
e-------------------1---3------------------------------|
   C Csus4  G/C C   F   G   F   G


Turn-around, back to the Verse..
e------------------------------------------------------|
b--5---5---5----3--------------------------------------|
g--5---5---5----4--------------------------------------|
d--2---2---2----5--------------------------------------|
a--0---0---0----2--------------------------------------|
e------------------------------------------------------|
   A-          G/B
Tap to rate this tab
# A B C D E F G H I J K L M N O P Q R S T U V W X Y Z