Guitaretab - guitar tabs
Song name
# A B C D E F G H I J K L M N O P Q R S T U V W X Y Z

Grand Belials Key - Son Of The Black Ram tab

Band: Grand Belial's key
Title: Son of the black ram
Album: The Tricifixion Of Swine

Tuning:  step down
/=slide x=mute

Riff1
|---------------------------|
|---------------------------|
|---------------------------|
|----10-9----7-6----5-4-5-1-|
|-11-8--7--8-5-4--6-3-2-3-1-|
|-9--------6------4---------|

Riff2
|-------------------------|
|-------------------------|
|-------------------------|
|----10-9----7-6----5-4-5-|
|-11-8--7--8-5-4--6-3-2-3-|
|-9--------6------4-------|

Riff3
|---------------------------------|
|---------------------------------|
|---------------------------------|
|-6-7-7-4-6-3-4--7/-10-10-7-9-6-7-|
|-4-5-5-2-4-1-2--5/-8--8--5-7-4-5-|
|---------------------------------|

Riff4                                              |this is F#m or F#
|--------------------------------------------------3-----|
|--------------------------------------------------3-----|
|--------------------------------------------------3-----|
|--------------------------------------------------5-----|
|-5--x-x-5--x-x-7--4--5--x--5--x-x-5--x-x-7--4--5--5--7--|
|-3--x-x-3--x-x-5--2--3--x--3--x-x-3--x-x-5--2--3--3--5--|

Riff5
|---------------------------------|
|---------------------------------|
|-------4-3-----------------------|
|-----4-2-1-5-4-----5-------------|
|-5-6-2-----3-2-x-x-3-5-4-8-4-5-2-|
|-3-4-----------x-x---3-2-6-2-3-0-|

Riff6
|-----------------------------------|
|-----------------------------------|
|-----------------------------------|
|----4--3--4-3-4-3-9----------------|
|-2--2--1--2-1-2-1-7--9--8--9-8-9-8-|
|-0-------------------7--6--7-6-7-6-|
[ Tab from: http://www.guitaretab.com/g/grand-belials-key/113747.html ]
Riff7
|------------------|
|------------------|
|------------------|
|-7----------------|
|-5--7--6--7-6-7-6-|
|----5--4--5-4-5-4-|

Riff8
|---------------------------|
|---------------------------|
|--------------0-0--0-2-2-2-|
|-2-2-2-2-2--2-2-2--2-2-2-2-|
|-2-2-2-2-2--2-2-2--2-2-2-2-|
|---------------------------|
 |PM----|

Riff9

|---------------------------|
|---------------------------|
|--------------2-2--2-0-0-0-|
|-2-2-2-2-2--2-2-2--2-2-2-2-|
|-2-2-2-2-2--2-2-2--2-2-2-2-|
|---------------------------|
 |PM----|

Riff10
|-------------------------------------------|
|-------------------------------------------|
|-------------------------------------------|
|-------5-----7-----9----7-----9----------5-|
|----7-----7-----9----------9----------7----|
|-7---------------------------------7-------|

Riff11
                                                Hammer on
                                                |    |
|-------------------------------------------------------------|
|-------------------------------------------------------------|
|-------------------------------------------------------------|
|---------10-----------7------------9-------10--9-10-9--------|
|-----7------------7------------9-------9---------------10--9-|
|-7------------8-----------11---------------------------------|

And the song goes like this...

Riff1    7x
Riff2    1x
Riff3    4x
Riff4    2x
Riff3    4x
Riff4    4x
Break...
Riff5    4x
Riff6    2x
Riff7    4x
Riff5    4x
Riff6    2x
Riff7    4x
Riff8\
      -- 10x
Riff9/
Riff10   2x
Riff11   2x
Riff10   2x
Riff11   2x
END
Related for Son Of The Black Ram tab