Song name
# A B C D E F G H I J K L M N O P Q R S T U V W X Y Z

Grand Belials Key - Shemhamforash tab

Title: Shemhamforash
Artist: Grand Belial's Key
Album: Mocking The Philanthropist

Tuning: Tune down 1 step( D A F C G D )
/ = slide
b = bend

Riff1
|------------------------------------------------------|
|------------------------------------------------------|
|------------------------------------------------------|
|-5--4--3--2----5--4--3--2----6--5--4--3----6--5--4--3-|
|-3--2--1--0----3--2--1--0----4--3--2--1----4--3--2--1-|
|------------------------------------------------------|

Riff2
|------------------------------------------------------------|
|------------------------------------------------------------|
|------------------------------------------------------------|
|------------------------------0---2--2-2-2--2--0------------|
|-0--0-0-0-0-2--0--2--3--2--3-----------------------3--2-----|
|------------------------------------------------------------|

|-------------------------------|
|-------------------------------|
|-------------------------------|
|-3--3-3-3--3--2--0--2 / 3 / 2--|
|-------------------------------|
|-------------------------------|

Riff3
|-----------------------------------------------------------|
|-----------------------------------------------------------|
|-----------------------------------------------------------|
|-2-2-2-2-2----2-2-2-2-2----5-5-5-5-2-2-2-2-4-4-4-4---------|
|-0-0-0-0-0----0-0-0-0-0----3-3-3-3-0-0-0-0-2-2-2-2-5-5-5-5-|
|---------------------------------------------------3-3-3-3-|

Riff4
|---------------------|
|---------------------|
|---------------------|
|---------------------|
|-3-3-3-3-3----3-3-5--|
|-1-1-1-1-1----1-1-3--|

Riff5
|---------------------------------------------------|
|---------------------------------------------------|
|---------------------------------------------------|
|---------------------------------6--6-6-6-----6--7-|
|--------------5--7--7-7-7--5--7------------7-------|
|-5--5-5-7--8---------------------------------------|

Solo
|-5---5-------------------------------------------1---0-----|
|---------5---5---6---6-------------------------------------|
|-------------------------5---5---2-------------------------|
|---------------------------------------3-----0-------------|
|-----------------------------------------------------------|
|-----------------------------------------------------------|

|-0---5---5--7--7--5--7--8--7--8--10--8--7--8--7--5---7 / 0-|
|-----------------------------------------------------------|
|-----------------------------------------------------------|
|-----------------------------------------------------------|
|-----------------------------------------------------------|
|-----------------------------------------------------------|

|-8--9--6--8--9--6--8--9--6--8--9--6--8--9--6--8--9--6--13b-|
|-----------------------------------------------------------|
|-----------------------------------------------------------|
|-----------------------------------------------------------|
|-----------------------------------------------------------|
|-----------------------------------------------------------|

And the song goes like this...

Riff1 2x
Riff1(modified) 6x
Riff2 2x
Riff3 2x
Riff4
Riff3 2x
Riff4
Riff2 2x
Riff3 2x
Riff4
Riff3 2x
Riff4
Riff5 4x
Riff5 (solo) 4x
Riff3 2x
Riff4
Riff3 2x
Riff4
Riff2 2x
END!!

Send corrections to: Petteri92@gmail.com
Tap to rate this tab
 
# A B C D E F G H I J K L M N O P Q R S T U V W X Y Z