Song name
# A B C D E F G H I J K L M N O P Q R S T U V W X Y Z

Grand Funk Railroad - American Band tab

e|----------------------------------------------------------|
B|----------------------------------------------------------|
G|-5-777---5h77-5h77-5h77-5h77--7h9--9-12-9-7-7h9-9-12-9-7--|
D|----------------------------------------------------------|
A|----------------------------------------------------------|
E|----------------------------------------------------------|

e|-----------------------------------------------------|
B|-----------------------------------------------------|
G|--7-7--7------7-7--7-------5---5-5----5-5--12-10-9-5-|
D|--7-7--7------7-7--7-------5---5-5----5-5--12-10-9-5-|
A|--5-5--5------5-5--5-------3---3-3----3-3--10-8--7-3-|
E|-----------------------------------------------------|

^that repeats for most of the song
CHORUS
e|-----------------------------------------------------------------------|
B|-----------------------------------------------------------------------|
G|--7-7-7-7-7-7-7----5-5-5-5-5-5-5-5--3-3-3-3--5-5-5-5--7-7-7-7-7-7-7-9--|
D|--7-7-7-7-7-7-7----5-5-5-5-5-5-5-5--3-3-3-3--5-5-5-5--7-7-7-7-7-7-7-9--|
A|--5-5-5-5-5-5-5----3-3-3-3-3-3-3-3--1-1-1-1--3-3-3-3--5-5-5-5-5-5-5-7--|
E|-----------------------------------------------------------------------|


Tap to rate this tab
# A B C D E F G H I J K L M N O P Q R S T U V W X Y Z