Guitaretab - guitar tabs
Song name
# A B C D E F G H I J K L M N O P Q R S T U V W X Y Z

Grand Funk Railroad - Nothing Is The Same tab

-----------------------------------------------------------------------------
			     Nothing is the Same - Grand Funk Railroad
			     Album: Closer to Home
-----------------------------------------------------------------------------
Tabbed by: Jody DeBernardo
Email: jdeberna@telusplanet.net

Tuning:E

e|-10--------13---------12---------10--------------------10--------13-------|
B|----13--10-----13--10-----13--10----13--10-------13-------13--10----13-10-|
G|-------------------------------------------10h12b--10---------------------|
D|--------------------------------------------------------------------------|
A|--------------------------------------------------------------------------|
E|--------------------------------------------------------------------------|


e|-12--------10-------------------------------------------------------------|
B|----13--10----13--10-------13-10-------13-10-------13-10-------13-10------|
G|---------------------10h12b------10h12b------10h12b------10h12b----10h12b-|
D|--------------------------------------------------------------------------|
A|--------------------------------------------------------------------------|
E|--------------------------------------------------------------------------|

e|------------10------------------------------------------------------------|
B|-13-10--13b----13-10------------------------------------------------------|
G|--------------------10h12-12br10----------------10------------------------|
D|---------------------------------12p10-12-------10h12--12p10--------------|
A|------------------------------------------10h12--------------12\10-8h10-8-|
E|--------------------------------------------------------------------------|
			    
e|---------------------------------|
B|---------------------------------|
G|---------------------------------|
D|-----------------10-10h12--10-12-|		
A|---------8-10/12-----------------|			
E|-10-8-10-------------------------|

G* This is a G 6 add 9 no 3

	D	    G*	      D	      	   G*		repeat
e|-----------------------------------------------------------------|
B|------10-10-------10---10---10-10-------10---10------------------|
G|-x-x--11-11-x-x---12-x-12---11-11-x-x---12-x-12------------------|
D|-x-x--------x-x---12-x-12---------x-x---12-x-12------------------|
A|-x-x--12-12-x-x---10-x-10---12-12-x-x---10-x-10------------------|
E|------10-10-----------------10-10--------------------------------|

  When I was ...


	D	    G*	      D	      	   G*	    D  G  D	
e|-----------------------------------------------------------------|
B|------10-10-------10---10---10-10-------10---10---10-10-10-------|
G|-x-x--11-11-x-x---12-x-12---11-11-x-x---12-x-12---11-12-11-------|
D|-x-x--------x-x---12-x-12---------x-x---12-x-12------12----------|
A|-x-x--12-12-x-x---10-x-10---12-12-x-x---10-x-10---12-10-12-------|
E|------10-10-----------------10-10-----------------10----10-------|


   
e|-----------------------------------------------------------------------|
B|-----------------------------------------------------------------------|
G|-8--------9-9-8-----9-9-8--6----7-7-6------7-7-6--4-----5-5-4----5-5-4-|
D|-9--------9-9-9-----9-9-9--7----7-7-7------7-7-7--5-----5-5-5----5-5-5-|
A|-9--------7-7-9-----7-7-9--7----5-5-7------5-5-7--5-----3-3-5----3-3-5-|
E|-7------------7---------7--5--------5----------5--3---------3--------3-|
  
  I never knew..
  Oppurtunity only..

e|------------------------------------------------------------------|
B|------------------------------------------------------------------|
G|-2---------------4----------7--------9-----------11---------------|
D|-3---------------5----------8--------10----------12---------------|
A|-3---------------5----------8--------10----------12---------------|
E|-1---------------3----------6--------8-----------10---------------|
 
   Now I'm looking forward to see what just what is mine.
   Then    my    friend  you better    let   it    in.

   solo
e|--------------------------------------------------------------------------|
B|--------------------------------------------------------------------------|
G|-12-10--------------------------------12-10-------------------------------|
D|-------12-11-10----10-10h12-----------------12-11-10----10-10h12----------|
A|----------------12----------12-10-12-----------------12----------12-10-12-|
E|--------------------------------------------------------------------------|


e|--------------------------------------------------------------------------|
B|---------------------------------------------------------13--13---13--13--|
G|-12-10--------------------------------12-10--------------12b-12b--12b-12b-|
D|-------12-11-10----10-10h12-----------------12-11-10----------------------|
A|----------------12----------12-10-12--------------------------------------|
E|--------------------------------------------------------------------------|


e|------------------------------------------------------------------------|
B|-13--13---13------------------------------------------------------------|
G|-12b-12b--12b---12b-12b----12br--10-9--9b-9-7----9h10--9-7--9h10p9p7----|
D|----------------------------------------------10------------------------|
A|------------------------------------------------------------------------|
E|------------------------------------------------------------------------|

[ Tab from: http://www.guitaretab.com/g/grand-funk-railroad/61694.html ]
e|-------------------------------------------/12-12-12br-10-8-10h12-10-8--|
B|------------------------------------------------------------------------|
G|-9h10p9p7-9h10p9p7-9h10p9p7-9h10p9p7h9----------------------------------|
D|------------------------------------------------------------------------|
A|------------------------------------------------------------------------|
E|------------------------------------------------------------------------|


e|-10h12p10p8--10h12p10p8--10h12p10p8--10h12p10p8h10--12-12-12br-10-8-10h12-|
B|--------------------------------------------------------------------------|
G|--------------------------------------------------------------------------|
D|--------------------------------------------------------------------------|
A|--------------------------------------------------------------------------|
E|--------------------------------------------------------------------------|


e|-10-8--10h12p10p8--10h12p10p8--10h12p10p8--10h12p10p8h10-|
B|---------------------------------------------------------|
G|---------------------------------------------------------|
D|---------------------------------------------------------|
A|---------------------------------------------------------|
E|---------------------------------------------------------|
 
  repeat
e|------------------------------------------------------------------------|
B|-/13-15p13-15p13----13b---13-15p13-15p13----13b---13-15p13-15p13----13b-|
G|-----------------14----------------------14----------------------14-----|
D|------------------------------------------------------------------------|
A|------------------------------------------------------------------------|
E|------------------------------------------------------------------------|


e|------------------------------------------------------------------------|
B|--13-15p13-15p13----13b-13b-13b-13b--13brb--12-12-10--------------------|
G|-----------------14------------------12brb--12-12-10--------------------|
D|-----------------------------------------------------12-10-12--12-10-12-|
A|------------------------------------------------------------------------|
E|------------------------------------------------------------------------|
  
e|-----------------------------------------------------------------------|
B|--------12-12-10---------------------------12-12-10--------------------|
G|-10-----12-12-10--------------------10-----12-12-10--------------------|
D|----12-----------12-10-12--12-10-12----12-----------12-10-12--12-10-12-|
A|-----------------------------------------------------------------------|
E|-----------------------------------------------------------------------|
							      D
e|------------------------------------------------------------------------|
B|--------12-12-10---------------------------12-12-10---------------------|
G|-10-----12-12-10--------------------10-----12-12-10---------11-11-11-11-|
D|----12-----------12-10-12--12-10-12----12-----------12-10---12-12-12-12-|
A|------------------------------------------------------------12-12-12-12-|
E|------------------------------------------------------------10-10-10-10-|

   C#		C		C#		D
e|----------------------------------------------------------------------|
B|----------------------------------------------------------------------|
G|----------------------------------------------------------------------|
D|----------------------------------------------------------------------|
A|----------------------------------------------------------------------|
E|----------------------------------------------------------------------|

								repeat
e|--------------------------------------------------------------------------|
B|------------------------12/14-12-------------------------12-12-12---------|
G|------10-10----10-10----12/14-12--------10-10-----10-10--12-12-12---------|
D|------10-10-12-10-10----12/14-12--10h12-10-10-12--10-10--12-12-12---------|
A|-10h12------12-------12-----------10h12-------12--------------------------|
E|--------------------------------------------------------------------------|

   Now I feel..

  out solo after intro
e|-----------------------------------------------------------------|
B|-13-------------------13-------------------13--------------------|
G|-12b-10----10----10---12b-10----10----10---12b-10----10----10----|
D|-------12-----12------------12-----12------------12-----12-------|
A|-----------------------------------------------------------------|
E|-----------------------------------------------------------------|


e|-----------------------------------------------------------------------|
B|-13-------------------13--13------------------13--13-------------------|
G|-12b-10----10----10---12b-12b-10----10----10--12b-12b-10----10----10---|
D|-------12-----12-----------------12----12----------------12----12------|
A|-----------------------------------------------------------------------|
E|-----------------------------------------------------------------------|

e|-------------------------------13-13-13-13-----------------------------|
B|-----13-------------13--13-13--13-13-13-13---12------------------------|
G|-12b----12br-10-----12b-12-12b-12-12-12-12br-10------7-7--10-10--12-12-|
D|----------------12------------------------------12---7-7--10-10--12-12-|
A|-----------------------------------------------------5-5--8--8---10-10-|
E|-----------------------------------------------------------------------|

								     
e|-------------------------------------------------------------------10--|
B|-------------------------------------------------------------------10--|
G|-15----12b-12b--12br-10--9h10p9h10p9h10p9h109h10p9h10p9h10p9h10p---11--|
D|-15----------------------------------------------------------------12--|
A|-13----------------------------------------------------------------12--|
E|-------------------------------------------------------------------10--|



| br bend note and release
| /  slide up
| \  slide down
| h  hammer-on
| p  pull-off
| ~  vibrato
| +  harmonic
| x  Mute note
===============================================================================
Related for Nothing Is The Same tab
Nothing Is The Same chords by Grand Funk Railroad