Guitaretab - guitar tabs
Song name
# A B C D E F G H I J K L M N O P Q R S T U V W X Y Z

Grand Funk - Bad Time tab

-------------------------------------------------------------------------------
 BAD TIME  GRAND FUNK  solo corrected for position
-------------------------------------------------------------------------------
Tabbed by:macdo	
Email: macdo2@telus.net

Tuning:standard
[ Tab from: http://www.guitaretab.com/g/grand-funk/7182.html ]
e|-------------------------------------------------------------------------|
B|-------------------------------------------------------------------------|
G|-----5-4---4---/5--/9-79h10p9--9-10--12-12--10--9-7-9-7-----------------|
D|-/7------5---------------------------------------------------------------|
A|-------------------------------------------------------------------------|
E|-------------------------------------------------------------------------|

e|-------------------------------------------------------------------------|
B|-------------------------------------------------------------------------|
G|-9h10p9---9-10--12-10-9-7--9-7-5-4---------------------------------------|
D|-------------------------------------5-----------------------------------|
A|-------------------------------------------------------------------------|
E|-------------------------------------------------------------------------|
Related for Bad Time tab