Song name
# A B C D E F G H I J K L M N O P Q R S T U V W X Y Z

Grand Magus - Legion tab

--------------------------------------------------------|
---------------3-3----------------------3-3-------------|
-2-------------2-2-0-2------5--0------2-2-2-2-----5-0---|
-2-------------0-0-0-2------5--0------2-0-0-2-----5-0---|
-0-0-0-0-0-0-0-------0-0-2--3--2------0-----0-0-2-3-2---|
--------------------------------------------------------|

--------------------------------------------------------|
---------------3-3---------5-5/6-6-5-0-0-0-1-0----------|
-2-------------2-2-0-2-----5-5---5-5-0-0-0-0-0----------|
-2-------------0-0-0-2-----5-5---5-5-0-0-0-0-0----------|
-0-0-0-0-0-0-0-------0-0-2-3-3---3-3-2-2-2-2-2----------|
--------------------------------------------------------|

verse.
--------------------------------------------------------|
--------------------------------------------------------|
-2-----------------------------5-0----------------------|
-2-----------------------------5-0----------------------|
-0-0-0-0-0-0-0-0-0-0-0-0-0-0-0-3-2----------------------|
--------------------------------------------------------|

ref.
-----------------------------------------------------------------------------|
-----------------------------------------------------------------------------|
-----------------------------------------------------------------------------|
--------7-77-77-7777----3-33-33-3333----10-1010-1010-10101010------5-----6---|
--------7-77-77-7777----3-33-33-3333----10-1010-1010-10101010------5-----6---|
----5-5---55-55-5555-1-1--11-11-1111-8-8---8-8--8-8--8-8-8-8---3333--4444----|
Tap to rate this tab
# A B C D E F G H I J K L M N O P Q R S T U V W X Y Z