Song name
# A B C D E F G H I J K L M N O P Q R S T U V W X Y Z

Grandaddy - The Crystal Lake tab

The Crystal Lake By Grandaddy tabbed for acoustic or electric


I've loved the song for so long I had to give the tab a shot,
The outro is my favourite part when you can really rock out. \o/ 

Peace and Be Wild, Yosh :)





Intro

(x2)

 C                   F                  Am                   F
|0------------------|X------------------|0------------------|X------------------|
|1-1-0---1-0---0-1--|1-1-0---1-0---0-1--|1-1-0---1-0---0-1--|1-1-0---1-0---0-1--|
|0------------------|2------------------|2------------------|2------------------|
|2-----2-----2------|3-----3-----3------|2-----2-----2------|3-----3-----3------|
|3------------------|3------------------|0------------------|3------------------|
|X------------------|X------------------|X------------------|X------------------|


Verse

(x2)                                                               (1st Time Fm)

 C                   D7 or D             Dm                  F               Fm
|0------------------|2------------------|1------------------|1----------------1-|
|1------------------|1------------------|3------------------|1----------------1-|
|0------------------|2------------------|2------------------|2----------------1-|
|2------------------|0------------------|0------------------|3----------------3-|
|3------------------|X------------------|X------------------|3----------------3-|
|X------------------|X------------------|X------------------|1----------------1-|


Chorus
  
 (x4)                                      
 A#                  G#                      
|6------------------|4------------------|   
|6------------------|4------------------|   
|7------------------|5------------------|   
|8------------------|6------------------|   
|8------------------|6------------------|   
|6------------------|4------------------|  

 (4th Time)                                                          No Chord     

 A#                  G#       F   G          G                 G#   G......G# 
|6------------------|4--------1---3-----|   |3..................4|
|6------------------|4--------1---3-----|   |3..................4|
|7------------------|5--------2---4-----|   |4..................5|
|8------------------|6--------3---5-----|   |5..................6|
|8------------------|6--------3---5-----|   |5..................6|
|6------------------|4--------1---3-----|   |3..................4|


Repeat

(Intro)
(Verse)
(Chorus)


(Outro)

 C                   Fm
|0------------------|1------------------|
|1------------------|1------------------|
|0------------------|1------------------|
|2------------------|3------------------|  x2
|3------------------|3------------------|
|X------------------|1------------------|

 C                   Bb    G#    Gm    F  
|0------------------|X-----4-----3-----1|
|1------------------|3-----4-----3-----1|
|0-----------------0|3-----5-----3-----2|  
|2-------------2-3--|3-----6-----5-----3|  x8
|3------------------|1-----6-----5-----3|
|X------------------|X-----4-----3-----1|

 C
|0
|1
|0
|2
|3
|X

------

Should never have left the crystal lake

Should never have left the crystal lake
For parties full of folks who flake
Italian leather winter games
Retired by the duraflames

The crystal lake it only laughs
It knows you're just a modern man
It's shining like the chandelier
Shining somewhere far away from here

I've gotta get outta here
I've gotta get outta here
I've gotta get outta here
I've gotta get outta here...

And find my way again
I've lost my way again

Should never have left the crystal lake

Should never have left the crystal lake
For areas where trees are fake
And dogs are dead with broken hearts
Collapsing by the coffee carts

The crystal lake it only laughs
It knows you're just a modern man
It's shining like the chandelier
Shining somewhere far away from here

I've gotta get outta here
I've gotta get outta here
I've gotta get outta here
I've gotta get outta here...

And find my way again
I've lost my way again







Tap to rate this tab
# A B C D E F G H I J K L M N O P Q R S T U V W X Y Z