Song name
# A B C D E F G H I J K L M N O P Q R S T U V W X Y Z

Grandaddy - Levitz tab

--------------------------------------------------------------------------
			     Levitz - Grandaddy
--------------------------------------------------------------------------
Tabbed by:deHufter
Email:kurtkill@hotmail.com

Tuning:standard

Intro: noise

Verse:
    C  G  Am E    F  D  C  G
e|--3--3--5--0----1--5--3--3------------------------------------------------|
B|--5--3--5--0----1--7--5--3------------------------------------------------|
G|--5--4--5--1----2--7--5--4------------------------------------------------|
D|--5--5--7--2----3--7--5--5------------------------------------------------|
A|--3--5--7--2----3--5--3--5------------------------------------------------|
E|-----3--5--0----1--------3------------------------------------------------|

Solo:
e|-:---------------------------------:--------------------------------------|
B|-:---------------------------slow--:--------------------------------------|
G|-:5--5-5-5/7--7-7-7\5--5-5-4-4b5r4-:--------------------------------------|
D|-:---------------------------------:--2-times-----------------------------|
A|-:---------------------------------:--------------------------------------|
E|-:---------------------------------:--------------------------------------|

e|--------------------------------------------------------------------------|
B|--------------------------------------------------------------------------|
G|--5--5-5-5/7--7-7-7\5--5-5-5/7-5/7-7-7--7-7-7/9--9-9-9p7--7-7-7/9--9-9-9p7|
D|--------------------------------------------------------------------------|
A|--------------------------------------------------------------------------|
E|--------------------------------------------------------------------------|

e|--------------------------------------------------------------------------|
B|--------------8-8-8---8---------------------------------------------------|
G|--7-7-7/9-9-9-------9---9~------------------------------------------------|
D|--------------------------------------------------------------------------|
A|--------------------------------------------------------------------------|
E|--------------------------------------------------------------------------|

e|--------------------------------------------------------------------------|
B|------------------------------------------------------------10---10-9~----|
G|--9-9-9-10-10-10-9-9-9-7-9-9~--7h9p7~--9-9-9-10-10-10-9-9-9----9----------|
D|--------------------------------------------------------------------------|
A|--------------------------------------------------------------------------|
E|--------------------------------------------------------------------------|

e|--------------------------------------------------------------------------|
B|---9-10-12-12b13~-13r12-10--12b13~--13r12--10--8~-------------------------|
G|--------------------------------------------------------------------------|
D|--------------------------------------------------------------------------|
A|--------------------------------------------------------------------------|
E|--------------------------------------------------------------------------|
Tap to rate this tab
# A B C D E F G H I J K L M N O P Q R S T U V W X Y Z