Song name
# A B C D E F G H I J K L M N O P Q R S T U V W X Y Z

Grandaddy - Chartsengrafs tab

---------------------------------------------------------------------------
			     Chartsengrafs - Grandaddy
---------------------------------------------------------------------------
Tabbed by:deHufter
Email:kurtkill@hotmail.com

Tuning:standard

Intro (very soft):
e|-------------------------------------------------------------------------|
B|-------------------------------------------------------------------------|
G|-------------------------------------------------------------------------|
D|--5----------------------------------------------------------------------|
A|--5----------------------------------------------------------------------|
E|--3----------------------------------------------------------------------|

Words come...then they go...

Verse:
e|-:-----------------------------------------:-----------------------------|
B|-:-----------------------------------------:-----------------------------|
G|-:-----------------5-5-5-5-----------------:-----------------------------|
D|-:-2-2-2-2-2-2-2-2-5-5-5-5-2-2-2-2-2-2-2-2-:---2times--------------------|
A|-:-2-2-2-2-2-2-2-2-3-3-3-3-2-2-2-2-2-2-2-2-:-----------------------------|
E|-:-0-0-0-0-0-0-0-0---------0-0-0-0-0-0-0-0-:-----------------------------|


e|-:---------------------------------:-------------------------------------|
B|-:---------------------------------:-------------------------------------|
G|-:-----------------7-7-7-7-5-5-5-5-:-------------------------------------|
D|-:-7-7-7-7-7-7-7-7-7-7-7-7-5-5-5-5-:--2times-----------------------------|
A|-:-7-7-7-7-7-7-7-7-5-5-5-5-3-3-3-3-:-------------------------------------|
E|-:-5-5-5-5-5-5-5-5-----------------:-------------------------------------|

Interlude:
e|-------------------------------------------------------------------------|
B|-------------------------------------------------------------------------|
G|-------------------------------------------------------------------------|
D|-------------------------------------------------------------------------|
A|--7-7-7^1/4-7^1/4-7^1/2-7^1/2-7^3/4-7^3/4-7^1/2-7^1/2-7^1/4-7^1/4--------|
E|-------------------------------------------------------------------------|


Chorus + outro:
e|-------------------------------------------------------------------------|
B|-------------------------------------------------------------------------|
G|-----------------7-7-7-7-7-7-7-7-5-5-5-5-5-5-5-5-------------------------|
D|---7-7-7-7-7-7-7-7-7-7-7-7-7-7-7-5-5-5-5-5-5-5-5-2-2-2-2-2-2-2-2---------|
A|---7-7-7-7-7-7-7-5-5-5-5-5-5-5-5-3-3-3-3-3-3-3-3-2-2-2-2-2-2-2-2---------|
E|---5-5-5-5-5-5-5---------------------------------0-0-0-0-0-0-0-0---------|

e|-:8-7-5----------------5-7--:--------------------------------------------|
B|-:------7-5h7h8-7-8-9-------:--------------------------------------------|
G|-:--------------------------:--repeat------------------------------------|
D|-:--------------------------:--------------------------------------------|
A|-:--------------------------:--------------------------------------------|
E|-:--------------------------:--------------------------------------------|
Tap to rate this tab
# A B C D E F G H I J K L M N O P Q R S T U V W X Y Z