Song name
# A B C D E F G H I J K L M N O P Q R S T U V W X Y Z

Grandaddy - Revolution tab

Help us improve GuitareTab! Take a short survey!
-------------------------------------------------------------------------------
			     Revolution - Grandaddy
-------------------------------------------------------------------------------

Couldn't find any tabs for this good Beatles cover anywhere, and it's definetely played 
from the original, so decided to do it myself.

Tuning: Standard

Verse (Strum Chords)
e|----------------------------------------------------------------------------|
B|----------------------------------------------------------------------------|
G|----7-----------------------------------------------------------------------|
D|----7--------------------------------------5--------------------------7-----|
A|----5--------------------------------------5--------------------------7-----|
E|-------------------------------------------3--------------------------5-----| x2
   PM............................................................................

      You say you wanna revolution, well you know, we all wanna change the world,

Pre-Chorus (Single Chords)
e|----------------------------------------------------------------------------|
B|----------------------------------------------------------------------------|
G|----9---------------------------------9-------------------------------------|
D|----9--------------------7------------9-------------------------2--------7--|
A|----7--------------------7------------7-------------------------2--------7--|
E|----------------------------------------------------------------------------|
x1

      But when you're talking about destruction, don't you know that you can count me out,

Chorus (Listen to the song for strumming pattern)
e|----------------------------------------------------------------------------|
B|----------------------------------------------------------------------------|
G|---------------7----------------------7-----------------------7-------------|
D|---------------7----5-----------------7---5-------------------7----5-----7--|
A|---------------5----5-----------------5---5-------------------5----5-----7--|
E|----------------------------------------------------------------------------|

x1

      You know it's gonna be alright, you know it's gonna be alright, you know it's 
be alright,

=========================================================
Related for Revolution tab