Song name
# A B C D E F G H I J K L M N O P Q R S T U V W X Y Z

Grandaddy - Am 180 tab

for all you fingerpickers out there...

tabbed by olly c

e|----------------------------------------------------------------------------|
B|----------------------------------------------------------------------------|
G|-------2---------------0---2---0-----------------------------------0--------|
D|---3-----------3---3---------------3---3---3---0---0---2---3---2-------2----|
A|-----3-----3---------3---------------3-------3-------3---------------------3|
E|-1-------1---1---1-------1---1---1-------1-------1-------1---1---1---1---1--|

e|--------------------------------------------------------------|
B|--------------------------------------------------------------|
G|-----------0---0-----------------------0----------------------|
D|-------2-----------2---2---2---2---3------3---3---3-----3---3-|
A|---3-----------------3-------3-------3------3-------3-----3---|
E|-1---1---1---1---1-------1-------1------1-------1-----1-------|

e|-----------------------------------------------|
B|-----------------------------------------------|
G|-------2---------------------------------------|
D|---3-------3---3---3---3---3---3---------------|
A|-----3-------3-------3-------3-----------------|
E|-1-------1-------1-------1---------------------|
Tap to rate this tab
 
# A B C D E F G H I J K L M N O P Q R S T U V W X Y Z