Song name
# A B C D E F G H I J K L M N O P Q R S T U V W X Y Z

Grandaddy - Rear View Mirror chords

Highlighted       Show chord diagrams
I think these chords are pretty much right.
Only one I had problems with is the chord
I've marked 'Bm?' just before the chorus
kicks in.  Any suggestions on something else
it might be are welcome.


C
Rear view mirror

C
What the hell

      Bm        Am        G
While I've been trying to drive somewhere

F                            D
Real and nearer

F                            D
Real and nearer

C
Rear view mirror
Don't wanna live life looking through a

C
What the hell

      Bm        Am        G
While I've been trying to drive somewhere

F                            D
Real and nearer

F                            D
Real and nearer

F                            D
Real and nearer

   A#m					       F
To boldly go no normal Joe or Jack or Jeff had ever been

A#m					                F
Pass it slow, it's told you so, it's might as well give up, old friend

   A#m					       F
To boldly go no normal Joe or Jack or Jeff had ever been

A#m					        F
Pass the classic no you never will and which is why we can

         C
Which is why we can

         Bm?
Which is why we can

Chords for solo:

C  Am  Em F  x2

solo:  Don't know where they play it but I play it up here as it's more fun to bend and 
cool on the low E:

e|--------------------------|
B|--------------------------|
G|--------------------------|
D|--------------------------|
A|--------10------10-12-----|
E|----/12-----12------------|

x4 with slight diff bends at the end

e|----------------------------|
B|----------------------------|
G|----------------------------|
D|------------12-----12-14----|
A|---15-15------15------------|
E|----------------------------|

x3

e|--------------------------------------|
B|--------------------------------------|
G|----------12-----12-14b---------------|
D|---15-15-----15-----------------------|
A|--------------------------------------|
E|--------------------------------------|

Adam Carrel
Tap to rate this tab
# A B C D E F G H I J K L M N O P Q R S T U V W X Y Z