Song name
# A B C D E F G H I J K L M N O P Q R S T U V W X Y Z

Grandaddy - Fentry tab

*= let ring

e |--------------------------------|
B |--------------------------------|
G |--5---5---5---5---5---5---5---5-|
D |8---8---8---8---8---8---8---8---|
A |--------------------------------|
E |--------------------------------|

e |--------------------------------|
B |--------------------------------|
G |--7---7---7---7---7---7---8---8-|
D |5---5---7---7---10--10--12--12--|
A |--------------------------------|
E |--------------------------------|

e |--------------------------------|
B |--------------------------------|
G |9*------------------------------|
D |10*-----------------------------|
A |--------------------------------|
E |--------------------------------|
Tap to rate this tab
 
# A B C D E F G H I J K L M N O P Q R S T U V W X Y Z