Song name
# A B C D E F G H I J K L M N O P Q R S T U V W X Y Z

Grandaddy - Now Its On tab

Verse
e|----------------------------------------------------------------|
B|----------------------------------------------------------------|
G|-----------6-6--6--6--------------------------------------------|
D|--2-2-2-2--6-6--6--6-----7--7-7-7---2-2--2--2-------------------|
A|--2-2-2-2--4-4--4--4-----7--7-7-7---2-2--2--2-------------------|
E|--0-0-0-0----------------5--5-5-5---0-0--0--0-------------------|
Pm................................................................

Pre Chorus
e|----------------------------------------------------------------|
B|----------------------------------------------------------------|
G|----------------------------------------------------------------|
D|---7---------2--------------------------------------------------|
A|---7---------2--------------------------------------------------|
E|---5---------0--------------------------------------------------|

e|----------------------------------------------------------------|
B|----------------------------------------------------------------|
G|----3---6--9----------------------------------------------------|
D|-4--3---6--9----------------------------------------------------|
A|-4--1---4--7----------------------------------------------------|
E|-2--------------------------------------------------------------|

Chorus
(Guitar 1)
e|-----------------------------------------------------------------|
B|-----------------------------------------------------------------|
G|-----------------------------------------------------------------|
D|---7---------2---------------------------------------------------|
A|---7---------2---------------------------------------------------|
E|---5---------0---------------------------------------------------|

(Guitar 2)
e|-----------------------------------------------------------------|
B|--5-5-5-4-2-2-0-----------5-5--5-4-2-2--0-2-0--------------------|
G|-----------------------9--8----------------------------1-0-1-----|
D|-----------------------9--9--------------------------------------|
A|-----------------------7--7--------------------------------------|
E|-----------------------------------------------------------------|

dedicated to Fat Kids on Mopeds.

haha
Tap to rate this tab
# A B C D E F G H I J K L M N O P Q R S T U V W X Y Z