Song name
# A B C D E F G H I J K L M N O P Q R S T U V W X Y Z

Grandaddy - Collective Dreamwish Of Upperclass Elegance tab

----------------------------------------------------------------------------
     Collective dreamwish of upperclass elegance - Grandaddy
----------------------------------------------------------------------------
Tabbed by:deHufter
Email:kurtkill@hotmail.com

Saw an awful tab of this song here on UG so i decided to tab it myself.
Hope you enjoy.

Tuning:standard

Chords used:
     Fm  C  G  D  C5  G5 A#5 F5  D#5
e|---1---0--3--2------------------------------------------------------------|
B|---1---1--3--3------------------------------------------------------------|
G|---1---0--0--2--5---------------8-----------------------------------------|
D|---3---2--0--0--5---5---8---3---8-----------------------------------------|
A|---3---3--2-----3---5---8---3---6-----------------------------------------|
E|---1------3---------3---6---1---------------------------------------------|

Verse: 
Fm C G C 3times, then: 
Fm C G G D 

Bridge: 
C5 G5 2times, then: 
A#5 F5 D#5 F5 

Solo guitar:
e|-:--3-5-6-5-3-3~-:-------------------------------------------------------|
B|-:-3-------------:-------------------------------------------------------|
G|-:---------------:-------------------------------------------------------|
D|-:---------------:-------------------------------------------------------|
A|-:---2times------:----------------5-6-8-6-5-5------5\1~---1-3-5-3~-------|
E|-:---------------:--3--5--6~----6-------------8-8~------3----------------|

Repeat verse and bridge

Outro:
e|--14\(0)--14\(0)--14\(0)-------------------------------------------------|
B|-------------------------------------------------------------------------|
G|-------------------------------------------------------------------------|
D|-------------------------------------------------------------------------|
A|-------------------------------------------------------------------------|
E|-------------------------------------------------------------------------|
Tap to rate this tab
# A B C D E F G H I J K L M N O P Q R S T U V W X Y Z