Song name
# A B C D E F G H I J K L M N O P Q R S T U V W X Y Z

Grandmaster Flash And The Furious Five - White Lines tab

"White Lines"
Grandmaster Flash
https://www.youtube.com/watch?v=2ChjLMbXVrU


Intro (sort of "swung" trill)
|---------------------|
|---------------------|
|---------------------|
|---------------------|
|---------------------|
|--3~-----------------|


Verse ("White lines") (There's more 5h8's on some of them than others)
|--------------------------------------|
|--------------------------------------|
|--------------------------------------|
|--------------------------------------|
|--------------------------------------|
|--5h8-5h8-5h8-5h8-5-------------------|


Build ("Get higher baby!"
|--------------------------------------------|
|--------------------------------------------|
|--------------------------------------------|
|--------------------------------------------|
|--------------------------------------------|
|--3--7--10--15------------------------------|


Chorus ("Don't do it!) @1:51

                  1st                 2nd               
|-15-13-12-13-12-|-13-15-15-12-13-15-|-15-13-12----------------|
|----------------|-------------------|----------15-13-12-------|
|----------------|-------------------|-------------------14-12-|
|----------------|-------------------|-------------------------|
|----------------|-------------------|-------------------------|
|----------------|-------------------|-------------------------|
Tap to rate this tab
# A B C D E F G H I J K L M N O P Q R S T U V W X Y Z