Song name
# A B C D E F G H I J K L M N O P Q R S T U V W X Y Z

Grantig - So Muss Es Sein tab

-----------------------------------------------------------------------------------|
-----------------------------------------------------------------------------------|
-----------------------------------------------------------------------2-----------|
-------------------------------------------------------------------2----7p5---5-7--|
----7p5---5-7---8-7------7p5---5-7-----7p5---5-7---3-2---------0---0----7------0---|
----7-------6-5----0----7------0------7--------1-0---------------------------------|


------------------------------------------------------------------------------|
------------------------------------------------------------------------------|
------------------------------------------------------------------------------|
-------------------------------------------------------------------2----------|
---7p5---5-7-----7p5---5-7----8-7-----7p5---5-7---3-----------3-3--2----------|
-0----7------0------7---------6-5---0-----7-------1-1-1-1-1-1-1-1--0----------|

www.grantig.com
Tap to rate this tab
# A B C D E F G H I J K L M N O P Q R S T U V W X Y Z