Guitaretab - guitar tabs
Song name
# A B C D E F G H I J K L M N O P Q R S T U V W X Y Z

Grantig - Der Knig tab

RIFF A
e-----------------------------------------------------------------------------|
h----------------------- -----------------------------------------------------|
g----------------------------------------------- -----------------------------|
d----------------------------------------------------------------------- -----|
a--8-7------------------------------ 5-------------------------7-77--8-88-----|
e--6-5---1p0--0-0-000-000--1p0---/6-- 6-5---1p0--0-0-000-000---5-55--6-66-----|
                                 *   *   ***
    ***                                                       *   *   ***    ***
RIFF B
e-----------------------------------------------------------------------------|
h----------------------- -----------------------------------------------------|
g----------------------------------------------- -----------------------------|
d--7----8--5------------------------------------------------------------ -----|
a--7----8--5------------------------------------------------------------------|
e--5----6--3------------------------------------------------------------------|

RIFF C
e-----------------------------------------------------------------------------|
h----------------------- -----------------------------------------------------|
g----------------------------------------------- -----------------------------|
d--------2---3--6--3---6-5---3------3-5--------------------------------- -----|
a--------2---3--6--3---6-5---3------3-5---------------------------------------|
e--0-0-0-0---1--4--1 ---4/3---1---0--1-3--------------------------------------|
[ Tab from: http://www.guitaretab.com/g/grantig/109122.html ]
Related for Der Knig tab