Song name
# A B C D E F G H I J K L M N O P Q R S T U V W X Y Z

Grape Digging Sharon Fruits - Square Moon chords

Highlighted       Show chord diagrams
-------------------------------------------------------------------------------
	          SQUARE MOON - Grape Digging Sharon Fruits
-------------------------------------------------------------------------------
Tabbed by:Volpone


Tuning: Standard

Main "riff"
e|---------------------------------------------------|
B|---------------------------------------------------|
G|-----2/3--3--3--2/3--3--3--2--3--3--3--5--3--2-----|
D|---------------------------------------------------|
A|---------------------------------------------------|
E|---------------------------------------------------|

Two chords

     Bb        Eb
e|---6---|-|---6---|-|
B|---6---|-|---8---|-|
G|---7---|-|---8---|-|
D|---8---|-|---8---|-|
A|---8---|-|---6---|-|
E|---6---|-|-------|-|

Bb
Made a little tower

Looking at the square moon

Put his monicker on the paperwork
Eb
Had a little tufler

Couldn't quite remember

Who were the brimmins that made her work



Bb
Spoke to a rich man

Couldn't see me thinking

Rolled into town forgot to leave
Eb
Drank for an hour

Mulling over blueprints

Swallowing down a lot to breathe



The chords continue through the musical breaks
Tap to rate this tab
 
# A B C D E F G H I J K L M N O P Q R S T U V W X Y Z