Grape Digging Sharon Fruits - Chasing Butterflies chords

Highlighted       Show chord diagrams
-------------------------------------------------------------------------------
		Chasing Butterflies - Grape Digging Sharon Fruits
-------------------------------------------------------------------------------
Tabbed by: ScorpionDeadman
Email:Shootiedog@hotmail.co.uk

This is my first Tab so if I've messed anything up I'm sorry. Just worked this out 
by ear and also the lyrics by ear so there may be a few mistakes in them but the 
chords should be good.

Tuning:E standard

Intro: G Em x2

Verse: 

        G              Em        G          Em
I was chasing that butterfly, chasing it fluttered by
 C             D            G
Then I fell asleep under a tree

Repeat this chord pattern

Chorus:

D    Dmaj7     G     A

      D      Dmaj7               G                   A
It carried me two and thro, it seemed to know just where to go
      D      Dmaj7               G                   A
                            It seemed to know just where to go
      D      Dmaj7               G                   A
                            It seemed to know just where, where to go

Pre-Verse:     D   C



The Chords for the verse and chorus are the same for the rest of the song


The song end on G, but between the 4 ending G chords the E,B and G strings of the 
G chord are played

e|-2---2-----------2----2--------2----2----------2---------------------------|
B|-2-----2---------2------2------2------2--------2---------------------------|
G|-0-------0-------0--------0----0--------0------0---------------------------|
D|-0---------------0-------------0---------------0---------------------------|
A|-2---------------2-------------2---------------2---------------------------|
E|-3---------------3-------------3---------------3---------------------------|
Tap to rate this tab
 
# A B C D E F G H I J K L M N O P Q R S T U V W X Y Z