Song name
# A B C D E F G H I J K L M N O P Q R S T U V W X Y Z

Grapes Of Wrath - All The Things I Wasnt tab

Help us improve GuitareTab! Take a short survey!
-------------------------------------------------------------------------------
			     All The Things I Wasn't - Grapes of Wrath
-------------------------------------------------------------------------------
Tabbed by: Pete Daley & Mark Gorringe
Email: padaley@hotmail.com

Tuning: Capo 5th fret

Intro (play 4x through)
e|----------------------|
B|------3---------------|
G|--------0---0---------|
D|----0-------------0---|
A|--------------1h3-----|
E|--3-------3-----------|

Verses 1 & 2
e|---------------------------------------------------------------------------|
B|------3------------------3----------------3-------1-------3-------3--------|
G|--------0---0--------------0---0------------0-------0-------0---0---0------|
D|----0-------------0----0----------------0-------3-------0------------------|
A|--------------1h3----------------1h3--------------------------0------------|
E|--3-------3----------3-------3--------3-------1-------3--------------------|

e|---------------------------------------------------------------------------|
B|------3------------------3----------------3-------1-------3-------3--------|
G|--------0---0--------------0---0------------0-------0-------0---0---0------|
D|----0-------------0----0----------------0-------3-------0------------------|
A|--------------1h3----------------1h3--------------------------0------------|
E|--3-------3----------3-------3--------3-------1-------3--------------------|

e|-----------------------------------0-------1-----0-------------------------|
B|-------3-------------3-----------3---3-------------3-----1-----3-----------|
G|-----0---0---------0---0-------2-------2-------2-----2-----0-----0---------|
D|---0-------0-----2-------2---0-----------0---0---------0-----2-----2-------|
A|-1-----------1-0-----------0-----------------------------------------3-----|
E|---------------------------------------------------------------------------|
                                   add to end of 2nd verse, into bridge  
e|--------------------------------|------------------------------------------|
B|-----1-3-------------3----/--8--|-----8-----8-----8------------------------|
G|---0-----0-------0-----0--------|-------0-----------0----------------------|
D|-----------0-------2-----2/7----|---7-----7-----7-----7--------------------|
A|-1-----------1-0----------------|-0-----------0----------------------------|
E|--------------------------------|------------------------------------------|

Bridge
e|-------0---------------3---------------------------------------------------|
B|-----6-----6---------5-----5---------3----------------3-----3---0----------|
G|---7---------7-----5---------5---------0---0---0----0-----0----------------|
D|-0-------0-------0-------0---------0---------------------------------------|
A|---------------0---------------0-------------0---0h2----2-----2------------|
E|---------------------------------3-------3---------------------------------|

e|-------0---------------3---------------------------------------------------|
B|-----6-----6---------5-----5---------3----------------3-----3---0----------|
G|---7---------7-----5---------5---------0---0---0----0-----0----------------|
D|-0-------0-------0-------0---------0---------------------------------------|
A|---------------0---------------0-------------0---0h2----2-----2------------|
E|---------------------------------3-------3---------------------------------|





e|-------0---------------3---------------3-----------------------------------|
B|-----6-----6---------5-----5---------3---3-----------3-----3---0-----------|
G|---7---------7-----5---------5-------------0-------0-----0-----------------|
D|-0-------0-------0-------0---------0---------0-----------------------------|
A|---------------0---------------0----------------0h2----2-----2-------------|
E|---------------------------------3-----------------------------------------|

e|-------0---------------3---------------------------------------------------|
B|-----6-----6---------5-----5---------3-----------------3-------------------|
G|---7---------7-----5---------5---------0---0-------------0---3-------------|
D|-0-------0-------0-------0---------0-------------0---0-------------0-------|
A|---------------0---------------0-------------1h3---------------1h3---------|
E|---------------------------------3-------3---------3-------3---------------|

e|-------------------------------------------|
B|-----3-----------------3-------------------|
G|-------0---0-------------0---3-------------|
D|---0-------------0---0-------------0-------|
A|-------------1h3---------------1h3---------|
E|-3-------3---------3-------3---------------|

Verse 3
e|---------------------------------------------------------------------------|
B|------3------------------3----------------3-------1-------3-------3--------|
G|--------0---0--------------0---0------------0-------0-------0---0---0------|
D|----0-------------0----0----------------0-------3-------0------------------|
A|--------------1h3----------------1h3--------------------------0------------|
E|--3-------3----------3-------3--------3-------1-------3--------------------|

e|---------------------------------------------------------------------------|
B|------3------------------3----------------3-------1-------3-------3--------|
G|--------0---0--------------0---0------------0-------0-------0---0---0------|
D|----0-------------0----0----------------0-------3-------0------------------|
A|--------------1h3----------------1h3--------------------------0------------|
E|--3-------3----------3-------3--------3-------1-------3--------------------|

e|-----------------------------------0-------1-----0-------------------------|
B|-------3-------------3-----------3---3-------------3-----------3-----------|
G|-----0---0---------0---0-------2-------2-------2-----2-------0---0---------|
D|---0-------0-----2-------2---0-----------0---0---------0---2-------2-------|
A|-1-----------1-0-----------0-----------------------------3-----------3-----|
E|---------------------------------------------------------------------------|
                                     
e|------------------------------------------------0-------0------------------|
B|-------3-------------3----/--8------8-----8-------8-----------8------------|
G|-----0---0---------0---0--------------0-------------0-----0----------------|
D|---0-------0-----2-------2/7------7-----7-----7-------7-----7--------------|
A|-1-----------1-0----------------0-----------0------------------------------|
E|---------------------------------------------------------------------------|
Related for All The Things I Wasnt tab