Song name
# A B C D E F G H I J K L M N O P Q R S T U V W X Y Z

Grarge - Bible Salad tab

BIBLE SALAD, by GRARGE!
From the album Bible Salad.

Intro:
e|--5p3p0--------5p3p0---------5p3p0---------||--5p3p0--3p2p0-----------|
B|---------0h3h5--------0h3h5--------0h3h5---||---------------0h2h3h5b--|
G|-------------------------------------------||-------------------------|
D|-------------------------------------------||-------------------------|
A|-------------------------------------------||-------------------------|
E|-------------------------------------------||-------------------------||
       ^something like that^

Verses:
e|--7----7----7--\\\\\------------|
B|-----7----7---7\\\\\\-----------|
G|--------------------------------|
D|--------------------------------|
A|--------------------------------|
E|---------------------------*\*--|
     this part is played by 2 guitars on the CD.
     for the high notes, use a slide, and the
     thing on the low E string is a slow scratch
     on the 1st fret neat the nut.

Once again, these are the basics & the songs are
almost always played differently except for the basic
riffs the songs are based on.

http://jake26554.tripod.com
(official GRARGE! site)
Tap to rate this tab
# A B C D E F G H I J K L M N O P Q R S T U V W X Y Z