Song name
# A B C D E F G H I J K L M N O P Q R S T U V W X Y Z

Grass Roots - Feelings tab

The Grassroots

"Feelings"
From the LP "Feelings" (1967)
Tabbed by Anders Pedersen: mc_nyregrus@hotmail.com


Main guitar riff:

|------------------------------|
|------------------------------|
|------------------------------|
|------------------4----2----0-|
|------4--2--0-2---------------|
|2-----------------------------|

Then A    B

The zylophone riff is:
|------------|
|------------|
|2--4--6-----|
|---------4--|
|------------|
|------------|

Chorus:
B 	A

I will maybe tab the rest of the verse riff someday.
Tap to rate this tab
# A B C D E F G H I J K L M N O P Q R S T U V W X Y Z