Song name
# A B C D E F G H I J K L M N O P Q R S T U V W X Y Z

Grass Roots - Wake Up tab

ahaha~ it's a pretty old song, but i feel that some of the tabs here are not complete so 
tabbed it out and here's the tabs of wake up by Slapshock...

D tuning/drop D (C G C F A D) NOTE:you don't have to drop the B and high E strings since 
not needed

. - palm mute
h - hammer-on
b - bend
~ - let it ring
x - dead note

Intro
  D|--------------------------|   |--------------------------|
  A|--------------------------|   |--------------------------|
  F|--------------------------|   |--------------------------|
  C|-2-2-2-2-2--0-2-3-2-------|   |-2-2-2-2-2--0-2-3-2-------|
  G|--------------------------|   |--------------------------|
  C|--------------------------|   |--------------------------|
     . . . . .  . . . .        x3   . . . . .                 (slight palm mute)

Inro/Chorus
   |--------------------------|   |--------------------------|
   |--------------------------|   |--------------------------|
   |--------------------------|   |--------------------------|
   |-2-2-2-2-2--0-2-3-2-------|   |-2-2-2-2--7-7-7-7-8-8-8-8-|
   |-2-2-2-2-2--0-2-3-2-------|   |-2-2-2-2--7-7-7-7-8-8-8-8-|
   |-2-2-2-2-2--0-2-3-2-------|   |-2-2-2-2--7-7-7-7-8-8-8-8-|
                               x3                             (repeat Intro/Chorus once)

Verse
   |----------------------------------------------------|
   |----------------------------------------------------|
   |----------------------------------------------------|
   |------------------------------------7---7-7-7b8-----|
   |-7--7-7-7b8-7---7-7-7b8-7---7-7-7b8-----------------|
   |----------------------------------------------------|
                                                         x4 (do the bending fast)

Pre Chorus
   |------------------------------------|---------------|
   |------------------------------------|---------------|
   |------------------------------------|---------------|
   |-2--2--2-3-2-2--2--2-3-2-2--2--2-3-7|--7-7-8--------|
   |-2--2--2-3-2-2--2--2-3-2-2--2--2-3-7|--7-7-8--------|
   |-2--2--2-3-2-2--2--2-3-2-2--2--2-3-7|--7-7-8--------|
                                        |                x4
                                        |(pause here on the 4th time)

Chorus
Verse
Pre Chorus
Chorus

Bridge
   |------------------------------------|
   |------------------------------------|
   |------------------------------------|
   |-2~~~-2-2---3-3---2-0h2-2-----------|
   |-2~~~-2-2---3-3---2-0h2-2-----------|
   |-2~~~-2-2---3-3---2-0h2-2-----------|
                                         x2 (do the hammer-on fast)

   |--------------------------------------------------------------|
   |--------------------------------------------------------------|
   |--------------------------------------------------------------|
   |-2-2--2-2-2-2---2-2--2-2-2-2---3-3--3-3-3-3---3-3--3-3-3-3----|
   |-2-2--2-2-2-2---2-2--2-2-2-2---3-3--3-3-3-3---3-3--3-3-3-3----|
   |-2-2--2-2-2-2---2-2--2-2-2-2---3-3--3-3-3-3---3-3--3-3-3-3----|
                                                                   x4 (rhythm)

   |-------------------------------------------------------------------|
   |-------------------------------------------------------------------|
   |-------------------------------------------------------------------|
   |---------9-9-9-9-----------9-9-9-9---------9-9-9-9---------9-9-9-9-|
   |-7-7-7-7---------7-7-7-7-7---------7-7-7-7---------7-7-7-7---------|
   |-------------------------------------------------------------------|
     . . . . . . . . . . . . . . . . . . . . . . . . . . . . . . . . .

   ------------------------------------------------------------------------------------|
   ------------------------------------------------------------------------------------|
   ------------------------------------------------------------------------------------|
   ----------10-10-10-10---------10-10-10-10---------10-10-10-10---------10-10-10-10---|
   --8-8-8-8-------------8-8-8-8-------------8-8-8-8-------------8-8-8-8---------------|
   ------------------------------------------------------------------------------------|
     . . . . .  .  .  .  . . . . .  .  .  .  . . . . .  .  .  .  . . . . .  .  .  .     
(lead)

   |-----------------------------------------------------------------|
   |-----------------------------------------------------------------|
   |-----------------------------------------------------------------|
   |---------9-9-9-9---------9-9-9-9---------9-9-9-9---------9-9-9-9-|
   |-7-7-7-7---------7-7-7-7---------7-7-7-7---------7-7-7-7---------|
   |-----------------------------------------------------------------|
     . . . . . . . . . . . . . . . . . . . . . . . . . . . . . . . .

   ------------------------------------------------------------------------------------|
   ------------------------------------------------------------------------------------|
   ------------------------------------------------------------------------------------|
   ----------10-10-10-10---------10-10-10-10---------10-10-10-10-10-10-11--13--15--12--|
   --8-8-8-8-------------8-8-8-8-------------8-8-8-8-----------------------------------|
   ------------------------------------------------------------------------------------|
     . . . . .  .  .  .  . . . .             . . . .                                    (lead)

   |-------------------------------------------------------------------|
   |-------------------------------------------------------------------|
   |-----4-------4-----4-------4-------5-------5-----5-------5---------|
   |-2-2-4-0h2-2-4---2-4-0h2-2-4---3-3-5-0h3-3-5---3-5-0h3-3-5---------|
   |-2-2-2-0h2-2-2---2-2-0h2-2-2---3-3-3-0h3-3-3---3-3-0h3-3-3---------|
   |-2-2---0h2-2-----2---0h2-2-----3-3---0h3-3-----3---0h3-3-----------|
                                                                        x2 ( do the 
fast in here as well)

   |------------------------------------------------------------------------|
   |------------------------------------------------------------------------|
   |------------------------------------------------------------------------|
   |-2--x-x2--x-x2---xx2--x-x2--x-x2---xx3--x-x3--x-x3---xx3--x-x3--x-3-2-0-|
   |-2--x-x2--x-x2---xx2--x-x2--x-x2---xx3--x-x3--x-x3---xx3--x-x3--x-3-2-0-|
   |-2--x-x2--x-x2---xx2--x-x2--x-x2---xx3--x-x3--x-x3---xx3--x-x3--x-3-2-0-|
                                                                      . . .

Chorus

Outro
   |-----------------------------------------------------------------------------------|
   |-----------------------------------------------------------------------------------|
   |-----------------------------------------------------------------------------------|
   |-2-2-2-2-2--0-2-3-2--2-2-2-2-2--0-2-3-2--3-3-3-3-3--1-3-4-3--3-3-3-3-3--1-3-4-3----|
   |-2-2-2-2-2--0-2-3-2--2-2-2-2-2--0-2-3-2--3-3-3-3-3--1-3-4-3--3-3-3-3-3--1-3-4-3----|
   |-2-2-2-2-2--0-2-3-2--2-2-2-2-2--0-2-3-2--3-3-3-3-3--1-3-4-3--3-3-3-3-3--1-3-4-3----|

   |-----------------------------------------------------------------------------------|
   |-----------------------------------------------------------------------------------|
   |-----------------------------------------------------------------------------------|
   |-2-2-2-2-2--0-2-3-2--2-2-2-2-2--0-2-3-2--3-3-3-3-3--1-3-4-3---2--2--2--2-----------|
   |-2-2-2-2-2--0-2-3-2--2-2-2-2-2--0-2-3-2--3-3-3-3-3--1-3-4-3---2--2--2--2-----------|
   |-2-2-2-2-2--0-2-3-2--2-2-2-2-2--0-2-3-2--3-3-3-3-3--1-3-4-3---2--2--2--2-----------|

any questions? e-mail me: kenneth_nethzken7@yahoo.com
add me on ym, friendster or myspace: same e-mail add as the above...
enjoy dudes and rock on \m/ ;)
Tap to rate this tab
# A B C D E F G H I J K L M N O P Q R S T U V W X Y Z