Song name
# A B C D E F G H I J K L M N O P Q R S T U V W X Y Z

Grateful Dead - Katie Mae tab

Katie Mae
Album: History of the Grateful Dead

I must warn you, I did not put the riffs with the lyrics, but it should be easy to work
which riffs go where if you just listen to the song, they are usually at the end of each
1 being at the end of the first line, 2 the second, 3+4 follow suit, but there are 
for the other verses, written out as different riffs.

Intro
|-/7-7-7-7---7-7---7-7---7-----7-------7-------7-----------------|
|-/5-5-5-5-5---5-5---5-5---7/9---9-7/9---9-7/9---9--0h2-0--------|
|----------------------------------------------------------------|
|----------------------------------------------------------------|
|---------------------------------------------------------2-2----|
|---------------------------------------------------------0-0----|

|---------------------------------|
|-----0---------------------------|
|--/4--4-4-4/2-0---0-2b3----------|
|----------------2-------2--------|
|--------------------------0-1-2--|
|---------------------------------|

Riff 1
|---0-----0-----|
|-----3-3---3---|
|-------4-------|
|-------------2-|
|-2-----------0-|
|-0-------------|
Riff 2
|-----------------------------0---|
|-------------------------------3-|
|-4-4-4-4-4-4-/2-0--------0h1---4-|
|------------------h2-------------|
|---------------------------------|
|---------------------0-0---------|
Riff 3
|---------------------------------|
|---------------------------------|
|---------------------------------|
|---0-2-5-5-2p0h2-----------------|
|-0---------------0-0-------------|
|---------------------------------|
Riff 4
|------------------------|
|------------------------|
|------------------------|
|-4-4-4-4-4-4-4----------|
|-2-2-2-2-2-2-2-1-0------|
|------------------------|
Riff 5
|-----------------------------------|
|-----------------------------------|
|-4-4-4-4-4-4-/2-0----0-2-0---------|
|------------------h2-------2-0-2---|
|---------------------------------2-|
|-----------------------------------|
Riff 6
|------------------|
|------------------|
|-------0h2p0------|
|-----2-------2-2--|
|-2-2---------0-0--|
|-0-0--------------|

Riff 7
|---0-----0-----------|
|-----3-3---3-------3-|
|-------4-------0h1-4-|
|-------------2-------|
|-2-----------0-------|
|-0-------------------|

Riff 8
|---4-----4-----4-----3---2-0-------2-|
|-----0-----0-----0-----0-----------0-|
|/4-----4-----4-----4-----4-4-------2-|
|-----------------------------------x-|
|-----------------------------0-1-2-2-|
|-------------------------------------|

Solo/Interlude part
|-----------------------------------------------------|
|-----------------------------------------------------|
|-4-4-4-4-4-4-4-4-4-/2-0------------------------------|
|------------------------h2---------0-2-2-0---0-2-0---|
|-------------------------------0h2---------2---------|
|---------------------------0-0-----------------------|

|-----------------------------------0-0-0-0-2b3-0--x--|
|-------------------------------0------------------x--|
|-/4-4-4-4-4-4-/4-4-4-/4-4-4-/4---4----------------x--|
|--------------------------------------------------x--|
|--------------------------------------------------x--|
|--------------------------------------------------x--|

|-----0-3-0---------0-0---0-3-3-0---0-----------------|
|---------------0h2-----2---------2-------------------|
|-----------------------------------------------------|
|-0h2-------2-2---------------------------------------|
|-0-0-------0-0-----------------------2-2-------------|
|-------------------------------------0-0-------------|

|--------------------------------0-----------------|
|----------------------------------3---------------|
|-4-4-4-4-4-4----/2-0--------0h1---4---------------|
|---------------------h2---------------------------|
|--------------------------------------------------|
|------------------------0-0-----------------------|

|---------2-2---2-2-------------|
|---------0-0---0-0-------------|
|---------2-2---2-2-------------|
|-------------------------------|
|-0-1-2-2-----2-----2-1-0-------|
|-------------------------------|

|---------------------------------------------|
|---------------------------------------------|
|-4-4-4-4-4-/2-0------------------------------|
|----------------h2---------0h2-2-0---0-2-0---|
|-----------------------0h2---------2---------|
|-------------------0-0-----------------------|

Outro
|-------------------------|
|-------------------------|
|-4-4-4-4-2-0---0-------0-|
|-------------2---2-0h2---|
|-------------------------|
|-------------------------|
Tap to rate this tab
# A B C D E F G H I J K L M N O P Q R S T U V W X Y Z