Song name
# A B C D E F G H I J K L M N O P Q R S T U V W X Y Z

Grateful Dead - Promised Land tab

tuning: standard
Grateful Dead
The Promised Land
Steal Your Face

e|---------------------------------------------------|
b|---------------------------------------------------|
g|---------------------------------------------------|
d|----------7/8--11-11--6--11-15--5--11-15--4--11-15-|
a|-7--10-11------------------------------------------|
E|---------------------------------------------------|

e|--------------------------------|
b|--------------------------------|
g|--------------------------------|
d|--------7--10/11----------9--13-|
a|-5--8-9----------9--12-13-------|
E|--------------------------------|

Key
| /  slide up
| \  slide down
| h  hammer-on
| p  pull-off
| ~  vibrato
| +  harmonic
| x  Mute note
Tap to rate this tab
 
# A B C D E F G H I J K L M N O P Q R S T U V W X Y Z