Song name
# A B C D E F G H I J K L M N O P Q R S T U V W X Y Z

Grateful Dead - Good Lovin tab

e----------------------------------------------|
b----------------------------------------------|
g----2-----7-------9------7--------------------|
d---3-----8------10-----8----------------------|
a--3-----8-----10-----8------------------------|
e----------------------------------------------|

above intro

e---------------------------------------------------------|
b---------------------------------------------------------|
g--2--7--9---7--9---7--2-7--9-----------------------------|
d--3--8--10--8--10--8--3-8--10----------------------------|
a--3--8--10--8--10--8--3-8--10----------------------------|
e--1--6--8---6--8---6--1-6--8-----------------------------|

verse below

e--1-1-6---6--6--8--8---6-6-6-6-6----------------------------|
b--1-1-6---6--6--8--8---6-6-6-7-7----------------------------|
g--2-2-7---7--7--9--9---7-7-7-7-7----------------------------|
d--3-3-8---8--8--10-10--8-8-8-8-8----------------------------|
a--3-3-8---8--8--10-10--8-8-8-8-8----------------------------|
e--1-1-6---6---6-8--8---6-6-6-6-6----------------------------|


THE REST OF THE SONG USES THESE CHORDS U CAN WORK THE REST OUT YOUR
SELF ITS A NICE EASY SONG TO PLAY
TABBED BY STEPHEN CRABTREE
Tap to rate this tab
# A B C D E F G H I J K L M N O P Q R S T U V W X Y Z