Song name
# A B C D E F G H I J K L M N O P Q R S T U V W X Y Z

Grateful Dead - Eleven tab

this is just part of the song, and its probably not right, but it sounds pretty good, 
play along the lines of the scale and you'll be fine, and remember, the dead never played 
song the same way twice.

e|--------------------------------------------------------------------|
B|--------------------------------------------------------------------|
G|-----------1-2p1-2--------------------------------------------------|
D|-----0-4-2----------------------------------------------------------|
A|-0-4----------------------------------------------------------------|
E|--------------------------------------------------------------------|


e|--------------------------------------------------------------------|
B|--------------------------------------------------------------------|
G|----------------13-14p13-14-----------------------------------------|
D|-------12-16-14-----------------------------------------------------|
A|-12-16--------------------------------------------------------------|
E|--------------------------------------------------------------------|


e|--17-16-14-12-------------------------------------------------------|
B|--------------15-14-12----------------------------------------------|
G|-----------------------14-------------------------------------------|
D|--------------------------------------------------------------------|
A|--------------------------------------------------------------------|
E|--------------------------------------------------------------------|

so moral of the story, just play around with everything and you'll be fine, its not all 
but i dont care, any questions email me at tjab89@yahoo.com
Tap to rate this tab
 
# A B C D E F G H I J K L M N O P Q R S T U V W X Y Z