Song name
# A B C D E F G H I J K L M N O P Q R S T U V W X Y Z

Grateful Dead - If I Had The World To Give tab

Intro/Riff:
~=vibrato bend,()=optional
lower case notation can be picked within the cord
4x
 
E-------------------------------------|
B-(5~)-5--3-----3--4~--3--------------|
G--------------5--------------5-------|
D--------------------------------6--5~|
A-------------------------------------|
E-------------------------------------|
After fourth riff:
1x
e------------------------|
B------------------------|
G------------------------|
D--3--3-2---3-2----------|
A----------5-------------|
E------------------------|


Cmaj Fmaj Em Dm
E--------------------------|-1--1-- -------0----------1---1|
B-----------------3----1---|-1--1----------0----------3-- 3|
G---------- 0--------------|-2--2------0-----------2------2|
D----0--2------------------|-3--3--3-2-------2--0---------0|
A--3-----------------------|-------------------------------|
E--------------------------|-------------------------------|
   C  d e   g     d     c    F       Em         Dm
   If I had the   world to   give
               G                 C
I'd give it to you - long as you live
          Em     Am
Would you let it fall
   G       F           C
or hold it all in your arms?

C  d e   g d    c  F    Em    Dm
If I had a song to sing
               G                    C
I'd sing it to you - as long as you live
Em   Am               G         F
Lullabye - or maybe a plain serenade
             G                 F
wouldn't you laugh, dance, and cry
      C                       C7
or be afraid at the trade you made?


 Fmaj7   Bbmaj7

E---0-----1-------|
B---1-----3-------|
G---2---- 2-------|
D---3-----3-------|
A---0-----1-------|
E---1-----1-------|

Fmaj7                             Bbmaj7
      I may not have the world to give to you
Fmaj7                    Bbmaj7
      but maybe I have a tune or two
Fmaj7                    Bbmaj7
      Only if you let me be your world

e     d c  d d#   d    c     g# g
could I ever give this world to you,
e     d c  d d#   d    c     g# g
could I ever give this world to you


G                             Bb      F
  But I will give what love I have to give
G                         Bb      F
  I will give what love I have to give
G                         Bb      F
  I will give what love I have to give
C
long as I live

(Solo)


C  d e   g d    c  F   Em Dm
If I had a star to give
               G                 C
I'd give it to you - long as you live
          Em       Am
Would you have the time
            G                F
to watch it shine - watch it shine
   G           F               C
or ask for the moon and heaven too?
               C7
I'd give it to you.

Fmaj7                      Bbmaj7
      But just now I've no star to spare
Fmaj7                     Bbmaj7
      or anything fine or even rare
Fmaj7                    Bbmaj7
      Only if you let me be your world
      e     d c  d d#   d    c     g# g
      could I ever give this world to you,
      e     d c d  d#   d    c     g# g
      could I ever give this world to you

E-------------------------------------|
B-(5~)-5--3-----3--4~--3--------------|
G--------------5--------------5-------|
D--------------------------------6--5~|
A-------------------------------------|
E-------------------------------------|
Tap to rate this tab
# A B C D E F G H I J K L M N O P Q R S T U V W X Y Z