Song name
# A B C D E F G H I J K L M N O P Q R S T U V W X Y Z

Grateful Dead - Box Of Rain tab

     Q    E   Q    Q    E     E   Q    Q    Q    E     Q    E  Q     E  Q     
E||----------------3-------|--5S--7----3----5-------|----------5--------8----|
B||------------------------|------------------------|------------------------|
G||-------2S--4---------5--|--5S--7-----------------|-------5-------/9-------|
D||------------------------|------------------------|------------------------|
A||------------------------|------------------------|------------------------|
E||------------------------|------------------------|------------------------|


  Q     Q     E   Q       E     Q    Q     E  Q       E   
--L-----------8--------------|---------------------------|
-------10b-------10pbr-------|-------------8-------------|
-----------------------------|-------7b-------7pbr-------|
-----------------------------|---------------------------|
-----------------------------|---------------------------|
-----------------------------|---------------------------|


  Q    E   E  E   E  E   E     H         E   E  Q        
----------------------------|---------------------------|
----------10-----10-----12--|---------------10----------|
--------------9-------------|--9b--------L------9pbr----|
----------------------------|---------------------------|
----------------------------|---------------------------|
----------------------------|---------------------------|


  Q    Q    Q    Q      
----------------------||
----------------------||
-------7----9----7----||
----------------------||
----------------------||
----------------------||
Tap to rate this tab
 
# A B C D E F G H I J K L M N O P Q R S T U V W X Y Z