Song name
# A B C D E F G H I J K L M N O P Q R S T U V W X Y Z

Grateful Dead - Franklins Tower tab

Franklin's Tower

The chords are A to D with 2 beats on G in between. They play this pattern the entire song.

   A              G         D/F#        G
E--xx--xx-xx--x---x--x-x-|--x--x-x--x---x--x-x-|
B--10--10-10--x---8--8-8-|--7--7-7--x---8--8-8-|
G--9---9--9---x---7--7-7-|--7--7-7--x---7--7-7-|
D--11--11-11--x---9--9-9-|--7--7-7--x---9--9-9-|
A--xx--xx-xx--x---x--x-x-|--9--9-9--x---x--x-x-|
E--xx--xx-xx--x---x--x-x-|--x--x-x--x---x--x-x-|
   1   2  &   3   &  4 &    1  2 &  3   &  4 & 

Intro: 

 A               D                      A                D
E-16b17-17rb16-14|15-14-----------------|----------------|----------------|
B----------------|-----15---17b19-19rb17|17-----14-----14|----------------|
G----------------|-------14-------------|------------14--|16-------14-----|
D----------------|----------------------|----------14----|--17-------16---|
A----------------|----------------------|----------------|----(17)-----17-|
E----------------|----------------------|----------------|----------------|

                 A                     D
E---------------|---------------------|-------------------------------------|
B---------------|---------------------|-------------------------------------|
G---------------|---------------------|-------------------------------------|
D-16-16-17-16-17|14----14-16-15-14----|----------------16-14----------------|
A---------------|---/16------------/16|\14-12-14-12-/16-----16-14-14--------|
E---------------|---------------------|-----------------------------17-14-12|

  A                 D
E------------------|------------------------------|
B------------------|------------------------------|
G------------------|14------------14-16-14-16sl18-|
D-/16-14---14-16-17|--16--------16----------------|
A------------------|----17-16h17------------------|
E------------------|------------------------------|


Lead after first chorus:

E-------------------------------------------------------------------------|
B-------------------------------------------------------------------------|
G----------------------------14--------------------------------14--14-16b-|
D----------------16-14--14h16--16-14-16------14--14--16-14-16----16-------|
A-14sl16-16-15-14------------------------sl16--16-------------------------|
E-------------------------------------------------------------------------|

E----------------------------------------------------14-12--14-12----------|
B----------------17-15-14-15--14---------------12sl14-----14-----14p12sl10-|
G-16-14--14----------------------16p14--16-14------------------------------|
D------16--16-14----------------------16-----------------------------------|
A--------------------------------------------------------------------------|
E--------------------------------------------------------------------------|

E---------------------------------|
B-12b14rb12p10-12b14rb12p10-------|
G--------------------------11sl9~-|
D---------------------------------|
A---------------------------------|
E---------------------------------|


If you get confused just listen to the music play:

E------------------------14-12h14p12-12-12-----------------------|
B------10--sl14----12sl14-----------------14-13-12--12-11-10--10-|
G-9sl11--11-----16-----------------------------------------------|
D----------------------------------------------------------------|
A----------------------------------------------------------------|
E----------------------------------------------------------------|

E----------------------------------------------------------------------|
B-12b14-12b14~p10--10-12b14-12b14~14rb12-------------10----------------|
G----------------11----------------------11-9---9sl11--11sl9---9-12-11-|
D------------------------------------------------------------11--------|
A----------------------------------------------------------------------|
E----------------------------------------------------------------------|

E-----------------------------9-10--9--------------------------------------|
B--------------10--10-12-10-12-------10---10--------------------------10~/-|
G---9-----11-----11--------------------9----11-9sl6--------------9---9-----|
D-12-11h12--12-------------------------------------9-9-7~-7-9sl11--11------|
A--------------------------------------------------------------------------|
E--------------------------------------------------------------------------|

Transcribed by matt gagliano 
mgags7@gmail.com
Tap to rate this tab
 
# A B C D E F G H I J K L M N O P Q R S T U V W X Y Z