Grateful Dead - Morning Dew tab

Morning Dew      Grateful Dead

|----------------------------------------5p3-5----------------|
|-3------x-----x-------------------5p3-5------------1---1-----|
|-2------x-----x---------------------------------0h2-0h2-0h2--|
|-0------x-----x---3--------0-2p0---------------------------0-|
|--------x-0-3-x-3----0-2-3-----------------------------------|
|-------------------------------------------------------------|

|---------------------------------------5p3-5-----------------|
|-x------x-----x------------------5p3-5------------1---1------|
|-x------x-----x--------------------------------0h2-0h2-0h2---|
|-x-0----x-----x---3-------0-2p0----------------------------0-|
|-x------x-0-3-x-3---0-2-3------------------------------------|
|-------------------------------------------------------------|

|-10p8-10----8p7-8-------10------10----3--------------2-------|
|-------------------10h12---10h12------2-----x--------3-------|
|--------------------------------------3-----x--2--3--2-------|
|------------------------------------0-------x--3-----0-------|
|--------------------------------------------x----------------|
|-------------------------------------------------------------|

D    C    G    D         D    C    G    D

F    C    Em   D         F    C    Em   D
Tap to rate this tab
 
# A B C D E F G H I J K L M N O P Q R S T U V W X Y Z