Song name
# A B C D E F G H I J K L M N O P Q R S T U V W X Y Z

Grateful Dead - Hurts Me Too tab

Hurts Me Too
From Europe 72


Intro's

Odd number tab staffs  = Jerry
Even number tab staffs = Bobby

E-----------------------------------------------------------|
B-----------10--10--9--9^10---------------------------------|
G---7^9--9--------------------------------------------------|
D-----------------------------------------------------------|
A-----------------------------------------------------------|
E-----------------------------------------------------------|

E-----------------------------------------------------------|
B-------------------------2-------2--3--2-------------------|
G-----------------------------------------------------------|
D-------------------------2-------2--4--2-------------------|
A-----------------------------------------------------------|
E-----------------------------------------------------------|

E----------------------------9---9h10-----------------------|
B---10------------------------------------------------------|
G--------9---9----------------------------------------------|
D-----------------------------------------------------------|
A-----------------------------------------------------------|
E-----------------------------------------------------------|

E-----------------------------------2------2--3--2----------|
B----------------2--3--5--3--2------1-----------------------|
G-----------------------------------2------2--4--2----------|
D----------------2--4--5--4--2------0-----------------------|
A-----------------------------------------------------------|
E-----------------------------------------------------------|


E---10----------10-----------------12--12---17--------------|
B-----------------------------------------------------------|
G-----------------------------------------------------------|
D-----------------------------------------------------------|
A-----------------------------------------------------------|
E-----------------------------------------------------------|

E---------------2------3--3--2---------------0--------------|
B----3p2-----3--1-------------------3--------2----3--5--2---|
G---------2-----2------4--4--2--------2p0-2--0--------------|
D---------------0----------------------------2----4--5--2---|
A--------------------------------------------0--------------|
E-----------------------------------------------------------|

E--17-------------------------------------------------------|
B-----17--17--17--15--15h17-----14---------------12--12^13--|
G-----------------------------------12--12^14---------------|
D-----------------------------------------------------------|
A-----------------------------------------------------------|
E-----------------------------------------------------------|

E--------------5----------0-----------------0------------2--|
B------------------5---3--5-----------------2------------1--|
G-------------------------7-----------------0------------2--|
D-------------------------6-----------------2------------0--|
A-------------------------7-----------------0---------------|
E-------------------------0---------------------------------|

E-----------------------------------------------------------|
B-------------14------14------------------------------------|
G-------------------------14--------------------------------|
D-----------------------------14--14--14--------------------|
A-----------------------------------------------------------|
E-----------------------------------------------------------|

E--------------0---------------0----------------------------|
B---2p0--------2---------------0----------------------------|
G--------2--0--0---------------1----------------------------|
D--------------2---------------0----------------------------|
A--------------0---------------2----------------------------|
E------------------------------0----------------------------|



                 A7
You said you was hurtin',
                 A7
Almost lost your mind;
                   D7
'Cause the man you love,
                  D7
Hurts you all the time.
                   A7
But when things go wrong,
           E7
Wrong with you
D7          A7       D7     A7      E7
It hurts me too.

You love him a little more,
When you ought to love him less.
Why pick up behind him
And take his best?
'Cause when things go wrong,
Wrong with you,
It hurts me too

You love another man;
Oh, but I love you
But you love him darlin',
Stick to him just about like glue.
But when things go wrong,
Wrong with you
It hurts me too.

Well, he better leave you,
Or you best put him down.
Cause you know, I just can't stand
To see, see you'all pushed around
‘Cause when things go wrong,
Wrong with you,
It hurts me too
Tap to rate this tab
 
# A B C D E F G H I J K L M N O P Q R S T U V W X Y Z