Song name
# A B C D E F G H I J K L M N O P Q R S T U V W X Y Z

Grateful Dead - Jack Straw tab

Artist: The Grateful Dead
Song: Jack Straw
Album: Europe '72

Tuning: EADGBE (Standard)

NOTE: This is Bob Weir's part only, and it is an approximation of what he plays as
opposed to being note for note.

INTRO:
E--0----0----0--0--0-0--|
B--0----0----0--0--0-0--|
G--9----9----9--9--9-9--|
D--6----6----6--6--7-6--|
A--7----7----7--7-------|
E--0--------------------|

E-------0----0--0--0-0--|
B-------0----0--0--0-0--|
G-------9----9--9--9-9--| x3
D--6----6----6--6--7-6--|
A--7----7----7--7-------|
E----0------------------|

"We can share the women, we can share the wine":
E--0--------9-----9---9---9\5----5----|
B--0-------10----10---9---9\5----5----|
G--9----9--11----11---9---9\6----6h7--|
D--6----7--11----11--11--11\7----7----|
A--7----6---9-----9--11--11\7---------|
E--0------------------9---9\5---------|

E--0----0--7-----5--5-------4---------5--5--|
B--0----0--7--7--5--5-------4--7----7-5--5--|
G--9----9--7--7--6--6h7--9--4--7----7-6--6--|
D--6----6--9--7--7--7----6--6--7----7-7--7--|
A--7----7-----5--7-------7-----5----5-7--7--|
E--0-------------5-------0------------5--5--|

E--0--------9-----9---9---9\5----5----|
B--0-------10----10---9---9\5----5----|
G--9----9--11----11---9---9\6----6h7--|
D--6----7--11----11--11--11\7----7----|
A--7----6---9-----9--11--11\7---------|
E--0------------------9---9\5---------|

E--0----0--7-----5--5-------7--5------0---------------|
B--0----0--7--7--5--5-------7--5------0---------------|
G--9----9--7--7--6--6h7--9--7--6------9--x-9--x-7--7--|
D--6----6--9--7--7--7----6--9--7------6--x-6--x-7--7--|
A--7----7-----5--7-------7--9--7------7--x-7--x-7--7--|
E--0-------------5-------0--7--5----0-----------------|

"I just jumped the watchman":
E--0--0-0--0-0--0-0--|
B--0--0-0--0-0--0-0--|
G--7--7-7--7-7--7-7--| x4
D--7--7-7--6-6--6-6--|
A--7--7-7--7-7--7-7--|
E--------------------|

"Hurts my ears to listen":
E--0--0-0--0-0--0-0--|
B--0--0-0--0-0--0-0--|
G--9--9-9--9-9--9-9--| x3
D--9--9-9--8-8--8-8--|
A--9--9-9--9-9--9-9--|
E--------------------|

"Might as well be..."
E--0--0-0--|
B--0--0-0--|
G--9--9-9--|
D--9--9-9--|
A--9--9-9--|
E----------|

"Me..."
E-----7--5--5-----0----0----0--|
B--7--7--5--5-----0----0----0--|
G--7--7--6--6h7---9----9----7--|
D--7--9--7--5-----6----6----6--|
A--5--------------7----7----7--|
E---------------0--------------|

This next part may look the same as above but Bob subtly alters his strumming, hitting
the first two chords on the subdivision of the first two beats instead of on them (the
"and" of the beat), giving the phrase a slightly different feel.  This continues until 
the "there ain't a winner in the game" line, which he returns the first two chords to the beat.

Guitar solo:
E-------7----5------0----0----0--|
B---7---7----5------0----0----0--|
G---7---7----6h7----9----9----7--| x3
D---7---9----7------6----6----6--|
A---5---------------7----7----7--|
E-----------------0--------------|

"We used to play for silver":
E-------7----5------0----0----0--|
B---7---7----5------0----0----0--|
G---7---7----6h7----9----9----7--| x3
D---7---9----7------6----6----6--|
A---5---------------7----7----7--|
E-----------------0--------------|

"There ain't a winner in this game":
E------7---5--5----0--0--5-5--5---------7---7---------7---7--7--|
B--7---7---5--5----0--0--5-5--5--7--7---8---8--7--7---8---8--8--|
G--7---7---6--6h7--9--9--6-6--6--7--7---7---7--7--7---7---7--7--|
D--7---9---7--7----6--6--7-7--7--7--7---9---9--7--7---9---9--9--|
A--5-------7-------7--7--7-7--7--5--5--10--10--5--5--10--10-10--|
E----------5-------0-----5-5--5---------------------------------|

E--0----0----0--0--0-0--|
B--0----0----0--0--0-0--|
G--9----9----9--9--9-9--| x2
D--6----6----6--6--7-6--|
A--7----7----7--7-------|
E--0--------------------|

Then the whole song repeats back to the "we can share the women, we can share the wine"
chords and follows through to the end with the same chord patterns in the same order as
above.  Bob's timing of the first two chords of the measures during the second guitar 
solo seems to alternate between being off the beat and on.  After the final E chord at the
end of this tab, repeat the "we can share the women, we can share the wine" line once 
and end the song on the A chord.
Tap to rate this tab
 
# A B C D E F G H I J K L M N O P Q R S T U V W X Y Z