Song name
# A B C D E F G H I J K L M N O P Q R S T U V W X Y Z

Grateful Dead - Ramble On Rose tab

    D                            D
E-------------------------2----------------------------2-------|
B-------------------------3----------------------------3-------|
G-------------------------2----------------------------2-------|
D---0-----0--------0--0---0--0----0-----0--------0--0--0--0----|
A------2-----2--0--------------------2-----2--0----------------|
E--------------------------------------------------------------| repeat

 D                           E
Just like Jack the Ripper,   Just like Mojo Hand,
F#m              G      D      G               A
Just like Billy Sunday,   In a shotgun ragtime band,

D                          E
Just like New York City,    Just like Jerico,
F#m                 G        D     G                       A
Pace the halls and climb the walls,  And get out when they blow.

D                         G
Did you say your name was,  Ramblin Rose?
E              G            D     AA AA            D
Ramble on baby, settle down easy,        Ramble on Rose.

Just like Jack and Jill, Mama told the jailor
One heat up, and one cool down, Leave nothin' for the tailor.
Just like Jack and Jill, Papa told the jailer
One go up, and one go down,  Do yourself a favor.

D                         G
Did you say your name was,  Ramblin Rose?
E              G            D     AA AA            D
Ramble on baby, settle down easy,        Ramble on Rose.

Bm                     C
 I'm gonna to sing you, a hundred verses in ragtime,
Bm                         C             G
 I know this song it ain't,  never gonna end.
Bm                              C
 I'm gonna march you up and down, along the county line,
D                A           Bm       E      A
 Take you to the leader of a band.


Solo:   (verse chords)

e---------------10-10-10----10-10------11s12-12-14-14-12---------|
b-----12----12-----------12-------12~~---------------------------|
g--14----14------------------------------------------------------|
d----------------------------------------------------------------|
a----------------------------------------------------------------|
e----------------------------------------------------------------|

e--13s14-14-14-12-14-15-14-12----15-15-15-16s17-17~~--17-16-15---|
b-----------------------------15---------------------------------|
g----------------------------------------------------------------|
d----------------------------------------------------------------|
a----------------------------------------------------------------|
e----------------------------------------------------------------|

Just like Crazy Otto,  Just like Wolfman Jack,
Sittin plush with a royal flush,  Aces back to back.
Just like Mary Shelly,  Just like Frankenstein,
Clank your chains and count your change
And try to walk the line.

Did you say your name was Ramblin Rose?
Ramble on baby, settle down easy,     Ramble on Rose.

I'm gonna to sing you a hundred verses in ragtime,
I know this song it ain't never gonna end.
I'm gonna march you up and down along the county line,
Take you to the leader of a band.

D                       E
Goodbye Mama and Papa,  Goodbye Jack and Jill
    F#m                      G          D
The grass ain't greener, the wine ain't sweeter
D       G           A
 Either side of the hill.

Did you say your name was Ramblin Rose?
Ramble on baby, settle down easy,   Ramble on Rose.

    D                         AA     AA         D
E-----------------------------------------------2-----------|
B-----------------------------------------------3-----------|
G-----------------------------------------------2-----------|
D---0-------------------------------------------0-----------|
A------4---4---2---0--0-----0--0--0----0-----2--------------|
E------------------------3----------------------------------|
                                  Ramble on Rose.
Tap to rate this tab
# A B C D E F G H I J K L M N O P Q R S T U V W X Y Z