Song name
# A B C D E F G H I J K L M N O P Q R S T U V W X Y Z

Grateful Dead - Turn On Your Lovelight tab

                                                                    
E||--------------------------------|--------------------------------|
B||--------------------------------|--------------------------------|
G||--------------------------------|--------------------------------|
D||--------------------------------|--------------------------------|
A||-------------2---0-----4----7---|-------------2---0-----4----7---|
E||--0-----4-----------------------|--0-----4-----------------------|


                                                                  
--------------------------------|--------------------------------|
--------------------------------|--------------------------------|
--------------------------------|--------------------------------|
--------------------------------|--------------------------------|
-------------2---0-----4----7---|-------------2---0-----4----7---|
--0-----4-----------------------|--0-----4-----------------------|


                                                                  
--------------------------------|--------------------------------|
--------------------------------|--------------------------------|
--------------------------------|--------------------------------|
--------------------------------|--------------------------------|
-------------2---0-----4----7---|-------------2---0-----4----7---|
--0-----4-----------------------|--0-----4-----------------------|


                                 Bass----------------------                            
--------------------------------|--------------------------|
--------------------------------|--------------------------|
--------------------------------|--------------------------|
--------------------------------|--------------------------|
-------------2---0-----4----7---|--------------------------|
--0-----4-----------------------|--------------------------|


----------------------Bass                                                          
--------------------------|--------------------------------|
--------------------------|--------------------------------|
--------------------------|--------------------------------|
--------------------------|--------------------------------|
--------------------------|-------------2---0-----4----7---|
--------------------------|--0-----4-----------------------|


                                                                       
----------------------------------||----------------------------------|
----------------------------------||----------------------------------|
----------------------------------||*---------------------------------|
----------------------------------||*---------------------------------|
-------------2-0-2-0-----4----7---||--------------2---0-----4---7-7---|
--0-----4-------------------------||---0-----4------------------------|


                                20x                            
---------------------------------||--------------------------||
---------------------------------||--------------------------||
--------------------------------*||--------------------------||
--------------------------------*||--------------------------||
-------------2---0-----4----7----||--------------------------||
--0-----4------------------------||--------------------------||
Tap to rate this tab
 
# A B C D E F G H I J K L M N O P Q R S T U V W X Y Z