Song name
# A B C D E F G H I J K L M N O P Q R S T U V W X Y Z

Grateful Dead - Handsome Cabin Boy tab

HANDSOME CABIN BOY - GRATEFUL DEAD


       D                         C            D
E---------------------------|-------------------------------|
B---------------------------|-------------------------------|
G---2--2--0-----------------|-------------------------------|
D------------4--2--0--------|----------2-------0------------|
A---------------------3--0--|-2--3--5-----5p3---------------|
E---------------------------|-------------------------------|

    D                   C       G           C       D
E-----------------------------------------------------------|
B--------------------0--1--3p1--0-----------1---0-----------|
G--------------0--2----------------2--0-------------2-------|
D---0----2--4-----------------------------------------------|
A-----------------------------------------------------------|
E-----------------------------------------------------------|
    D                   C       G          C               D
E------------------------------------------------------------|
B--------------------0--1--3p1--0----------1--3p1--0---------|
G--------------0--2----------------2--0---------------2--0-2-|
D---0----2--4------------------------------------------------|
A------------------------------------------------------------|
E------------------------------------------------------------|
       D                         C             D
E---------------------------|-------------------------------|
B---------------------------|-------------------------------|
G---2--2--0-----------------|-------------------------------|
D------------4--2--0--------|----------2-------0------------|
A---------------------3--0--|-2--3--5-----5p3---------------|
E---------------------------|-------------------------------|


D                          C             D
It's of a pretty female as you will understand
    D                   C      G    C       D
Her mind was set on rambling into a foreign land
    D                           C       G      C     D
She dressed herself in man's attire and boldly did appear
    D                             C               D
And she engaged with a captain to serve him for a year.
Tap to rate this tab
# A B C D E F G H I J K L M N O P Q R S T U V W X Y Z