Song name
# A B C D E F G H I J K L M N O P Q R S T U V W X Y Z

Grateful Dead - Althea tab

http://www.geocities.com/darksaw/althea.html


e|-------------------------------------------------|
B|----------------3--------2--3--2---------2-------|
G|------------------4------2-------1h2---1-2-------|
D|--------------4-----4----2-----------2---2-------|
A|--------0-1-2---------2--0-----------------------|
E|--1/4--------------------------------------------|


e|-------------------------------------------------|
B|----------------3--------2--3--2-----------------|
G|------------------4------2-------1h2---1-2-0h1---|
D|--------------4-----4----2-----------2---------2-|
A|--------0-1-2---------2--0-----------------------|
E|--1/4--------------------------------------------|


Enjoy.  From In the Dark, live version.
Tap to rate this tab
 
# A B C D E F G H I J K L M N O P Q R S T U V W X Y Z