Song name
# A B C D E F G H I J K L M N O P Q R S T U V W X Y Z

Grateful Dead - Cream Puff War tab

-----------------------------------------
Band-Grateful Dead
Song-Cream Puff War
Tabber-Edwardthegreat5
-----------------------------------------


Intro:
--------------------------|
--------------------------|
--------------------------|
--------------------------|
---------2--0--------2--0-|
---0--3--------0--3-------|


  figure a (2x)
--------------------|
--------------------|
--------------------|
--------------------|
-0-0-----0----------|
-----0-3---3-0-0--3-|


strum A furiously followed by G9 2x

(* - play figure a)

A   G   D         C         Em       A     *
No, no! She can't take your mind and leave
  A         G    D       C           Em         A      *
I know it's just another trick she's got up her sleeve
  A       G          D          C     Em     A   *
I can't believe that she really wants you to die
      A        G          D     C      Em       A   *
After all it's more than enough to pay for your lie

A              G                       D         A    *
Wait a minute, watch what you're doin' with your time
E(12th fret)          D                C      A    G D C Em
All the endless ruins of the past must stay behind,
A    *
Yeah
(scream)

Solo:
--------------------------------------------------|
------5-----------------------8-10~--10p8-8--10-8-|
--7(9)-(9)7p5-----------5-7/9------------9--------|
--------------7p5---5-7---------------------------|
------------------7-------------------------------|
--------------------------------------------------|

-----------------------------------------------------------------------------|
-----------------17-20~--20(22)-20p17----17-17(18)---------------------------|
-----------17-19----------------------19-----------19-17-19(21)-19p17----17--|
-----17-19------------------------------------------------------------19--19-|
-/19-------------------------------------------------------------------------|
-----------------------------------------------------------------------------|

-8p6-6----------6-6--8-6-8-12-15-12-17-17~--17p15----17(19)-17~-|
----8-8p6---6h8-----------------------------------17------------|
----------7-----------------------------------------------------|
----------------------------------------------------------------|
----------------------------------------------------------------|
----------------------------------------------------------------|


-17p15--15------------------------17-17-17-17-17-17-17---|
------17--17p15----------------15------------------------|
----------------16p14----14-16---------------------------|
----------------------16---------------------------------|
---------------------------------------------------------|
---------------------------------------------------------|


      A          G              D            C   Em   A     *
Well, can't you see that you're killing each other's soul
             A               G               D       C   Em  A      *
Well, you're both out in the streets and you got no place to go
     A         G          D          C  Em  A   *
Your constant battles are getting to be a bore
   A             C        D             F    Em   A   *
So go somewhere else and continue your cream puff war

Outro:

--------------------------------------------------8-10(12)-|
---------5---------------8/10--10p8--8-------8-10----------|
-----5-7---7(9)7p5---7/9------------9--9-7-9---------------|
-5-7---------------7---------------------------------------|
-----------------------------------------------------------|
-----------------------------------------------------------|

-10p8----8-----------------------------------------------------------------|
------10---10p8---8--------------------------------------------------------|
----------------9---97p5-7p5---5----------------------------------5(6)-----|
------------------------------7---7p5---5----------------------5-7-----7~--|
--------------------------------------7---7p53-5-5p3---3-/5-7--------------|
------------------------------------------------------5--------------------|

----------------------------------------------------------------|
----------------------------------------------------------------|
--7(9)(9)(9)(9)(9)(9)(9)(9)7-7-7-7-7-7-7-7-7-7-(9)(9)(9)(9)(9)--|
----------------------------------------------------------------|fade
----------------------------------------------------------------|
----------------------------------------------------------------|
Tap to rate this tab
# A B C D E F G H I J K L M N O P Q R S T U V W X Y Z