Song name
# A B C D E F G H I J K L M N O P Q R S T U V W X Y Z

Grateful Dead - Hell In A Bucket tab

--------------------------------------
Song-Hell in a Bucket
Band-Grateful Dead
Tabber-Edwardthegreat5
--------------------------------------

Intro
 B
E-----------------7------0-0---0-0--2-----------------------|
B----7^10--9---8--7------1^2---1^2--4-----------------------|
G----8^11--10--9--8------1^2---1^2--4-----------------------|
D------------------------1^2---1^2--4-----------------------|
A------------------------0-0---0-0--2-----------------------|
E-----------------------------------------------------------|

Verse Part
E-------------------------------------------7---------------|
B-------------9-------------8------------7------------------|
G-------------10------------9------------8------------------|
D-----------------------------------------------------------|
A-----------------------------------------------------------|
E-----------------------------------------------------------|
  Well, I was drinkin' last night with a biker

E---------0-----------0-------------------------------------|
B---------0-----------2--------------------------3p2--------|
G---------1-----------2-------------------------------2--4--|
D---------2-----------2-------------------------------------|
A---------2-----------0-------------------------------------|
E---------0-------------------------------------------------|
  I said "Pal, get to know her, you'll like her

E-----------------------------------------------------------|
B-----------------------------------------------------------|
G--2----2--\--1-------2-------3----3^4----------------------|
D-----------------------------------------------------------|
A-----------------------------------------------------------|
E-----------------------------------------------------------|
   It seemed like the least I could do

E-----------------------------------------------------------|
B-----------------------------------------------------------|
G-----------4--2--1----------4------------------------------|
D--0--1--4-----------4--0h1---------------------------------|
A-----------------------------------------------------------|
E-----------------------------------------------------------|

Chorus
E-------------------------------------7---------------------|
B-------------9------8---------7----------------------------|
G-------------9------9---------8----------------------------|
D-----------------------------------------------------------|
A-----------------------------------------------------------|
E-----------------------------------------------------------|
   I may be goin' to hell in a bucket babe

Bridge
E---2-------4----------7-----------7------------------------|
B---2-------6----------9-----------9------------------------|
G---3-------6----------9-----------9------------------------|
D---4-------6----------9-----------9------------------------|
A---4-------4----------7-----------7------------------------|
E---2-------------------------------------------------------|
    You  Analyze me  attempt to despise me

E-----------------------------------------------------------|
B--------------3-p-2----------------------------------------|
G--------------------2^4-2----2---1---2---------------------|
D-----------------------------------------------------------|
A-----------------------------------------------------------|
E-----------------------------------------------------------|
    You laugh when I stumble and fall

E---------------------------------------7-------------------|
B----------9---------8---------7--------7-------------------|
G----------9---------9---------8----------------------------|
D-----------------------------------------------------------|
A-----------------------------------------------------------|
E-----------------------------------------------------------|
    There may come a day I'll dance on grave
         Unable to   dance I'll crawl across it

E-----0-0----0-0--------2-----------------------------------|
B-----1^2----1^2--------4-----------------------------------|
G-----1^2----1^2--------4-----------------------------------|
D-----1^2----1^2--------4-----------------------------------|
A-----0-0----0-0--------2-----------------------------------|
E-----------------------------------------------------------|
   Unable to dance I'll crawl

Intro

Verse Part

           E             Em           B
Well I was drinkin' last night with a biker
      E            Em         B
And I showed him a picture of you
         E          A
I said, "Pal get to know her, you'll like her
                A       Bb    B
Seemed like the least I could do.
      E         Em           B
Cause when he's chargin' his chopper
       E         Em       B
Up and down your carpeted halls
         E           A
You will think it by contrast quite proper
      A                  Bb  B
Never mind how I stumble and fall.
      A                      B
Never mind how I stumble and fall.


Chorus

     F#
You imagine me sipping champagne from your boot
    A             D  A    A^B \ A
For taste of your elegant pride
         E        Em        B
I may be going to hell in a bucket, babe
       E           Em         B
But at least I'm enjoyin' the ride,
   E           Em         B
At least I'm enjoyin' the ride.
         A                      B
Yeah, at least I'm enjoyin' the ride.

Now miss sweet little soft-core pretender
Somehow baby, it got as hard as it gets
With her black leather chrome spiked suspenders
Her chair, and her whip and her pets.

Well we know you're the reincarnation
Of the ravenous Catherine the Great
And we know how you love your ovations
For the Z-rated scenes you create.
The Z-rated scenes you create.

You imagine me sipping champagne from your boot
For taste of your elegant pride
I may be going to hell in a bucket, babe
At least I'm enjoyin' the ride.
Yeah, at least I'm enjoyin' the ride.

Bridge

F#     C#         E
You analyze me, pretend to despise me
You laugh when I stumble and fall
There may come a day when I will dance on your grave
If unable to dance I'll still crawl across it
Unable to dance I'll still crawl
Unable to dance I'll crawl.

You must really consider the circus
It just might be your kind of zoo
I can't think of a place that's more perfect
For a person as perfect as you.

And it's not like I'm leaving you lonely
Cause I wouldn't know where to begin
Well I know that you'll think of me only
When the snakes come marching in.
When the snakes come marching in.

You imagine me sipping champagne from your boot
For taste of your elegant pride
I may be going to hell in a bucket, babe
At least I'm enjoyin' the ride.
Ride, ride, ride
Ride, ride, ride
Ride, ride, ride
At least I'm enjoyin' the ride.
At least I'm enjoyin' the ride.
At least I'm enjoyin' the ride.
Tap to rate this tab
# A B C D E F G H I J K L M N O P Q R S T U V W X Y Z