Song name
# A B C D E F G H I J K L M N O P Q R S T U V W X Y Z

Grateful Dead - Crazy Fingers tab

Crazy Fingers
Blues for Allah
Garcia/Hunter

EADGBe (standard)

----Intro---


  Repeat Several Times
E------------------------|------------3---------------------|
B---------3----------3---|---------3-----3------------------|
G------4----------4------|------5-----------5---------------|
D---5----------5---------|---5------------------------------|
A------------------------|----------------------------------|
E------------------------|----------------------------------|

E-----------------------------------------------------------|
B-----------------------------------------------------------|
G-----------------------------------------------------------|
D---5--5--4------2--2--1------------------------------------|
A-----------------------------------------------------------|
E-----------------------------------------------------------|

D         C                G
Your rain falls like crazy fingers
Bb               F      Fm            Gsus4   G
Peals of fragile thunder keeping time
Bb         Bbm       Ebmaj7       Cm    G    Gsus4  G
Recall the days that still are to come. Some sing   blue.

Hang your heart on laughing willow
Stray down to the water, deep sea of love
Beneath the cool calm face of the sea swift undertow.

Fm                      Ab            Eb
Life may be sweeter for this, I don't know,
Fm          Ab          Eb       Cm/G   G7
See how it feels in the end.
Ab       Ao7          Ebmaj7
May Lady Lullaby sing plainly for you
Dmaj7 Dbmaj7  Db7   Dbmaj7  Gsus4    G
Soft, strong, sweet and     true.


Questions? bcook11@gmail.com

If you can't find a dead song tabbed out just hit me up, i probably know it and I can send it to you.
Tap to rate this tab
# A B C D E F G H I J K L M N O P Q R S T U V W X Y Z