Song name
# A B C D E F G H I J K L M N O P Q R S T U V W X Y Z

Grateful Dead - Going Down The Road Feeling Bad tab

-------------------------------------------------------------------------------
            going down the road feeling bad - Grateful Dead
-------------------------------------------------------------------------------
Email:a.colavolpe@smcglobal.net


Intro
e|---------------------------------------------------------------------------|
B|---------------------------------------------------------------------------|
G|---------------------------------------------------------------------------|
D|-------------------------2---------------2---------------------------------|
A|-------------2--2--4--2-----4---2-2--4-------------------------------------|
E|---0----3h4----------------------------------------------------------------|


Verse
Goin down the road

e|-------------------------------|
B|------0--0--0--2-----0---------|
G|----1-------------1-----1------|
D|-------------------------------|
A|-------------------------------|
E|-0-----------------------------|

e|------------------------------------------------------------------------------|
B|------------------------------------------------------------------------------|
G|------------------------------------------------------------------------------|
D|-------------------------2----------------------------------------------------|
A|-------------2--2--4--2-----4---2-2--4--0-------------------------------------|
E|---0----3h4-------------------------------------------------------------------|

e|----------------------------------------------|
B|----------------------------------------------|
G|----------------------------------------------|
D|------------2-2----5-----2--2-----------------|
A|--(0)----4------4-----4-----------------------|
E|----------------------------------------------|

e|------------------------------------------------------------------------------|
B|------------------------------------------------------------------------------|
G|------------------------------------------------------------------------------|
D|-------------------------2----------------------------------------------------|
A|-------------2--2--4--2-----4---2-2--4--0-------------------------------------|
E|---0----3h4-------------------------------------------------------------------|


e|------------------------------------------0-------------------|
B|--------------------------------0--1--2-------2---------------|
G|--------------------------1-----------------------------------|
D|---------2-2----5------2--------------------------------------|
A|--(0)--4------4-----4-----------------------------------------|
E|--------------------------------------------------------------|


e|-------------------------------------|
B|-------------0--2-(2)-0--------------|
G|----1--1--1--------------1-----------|
D|----------------------------4--2-----|
A|-------------------------------------|
E|-------------------------------------|

e|---------------------------------------------------------------------------|
B|---------------------------------------------------------------------------|
G|---------------------------------------------------------------------------|
D|-------------------------2---------------2---------------------------------|
A|-------------2--2--4--2-----4---2-2--4-------------------------------------|
E|---0----3h4----------------------------------------------------------------|

SOLO
e|---------------------------------------------------------------------------|
B|-----------------------------------------12------12------------------------|
G|---11b-11-9---------9-11b---11-11b--(11)----11b------11b-------------------|
D|------------11-9-----------------------------------------------------------|
A|-----------------11--------------------------------------------------------|
E|---------------------------------------------------------------------------|

e|----------------------10----10-----12--------------------------------------|
B|--12p9-------------------12----12b----12(12)10----12----10-----------------|
G|-------11-9-11-9----9---------------------------11---11----11b-------------|
D|-----------------11--------------------------------------------------------|
A|---------------------------------------------------------------------------|
E|---------------------------------------------------------------------------|


e|-------------------------|
B|-------------------------|
G|--(11)119----------------|
D|----------11-9-----------|
A|---------------12--11----|
E|-------------------------|


e|----------------------------------------------------------------------------|
B|-----------------------------------------10-10------------------------------|
G|----------------------------7----------9-------11-9-12(12)-11-9--12-11-9----|
D|-------9--11p9-----9----------9p7-9/11-------------------------11-----------|
A|--(11)---------11----11p9---------------------------------------------------|
E|----------------------------------------------------------------------------|


e|---------------------------------------------------------------------------|
B|---------------------------------------------------------------------------|
G|--------------9----9-llb-11-9-11b-11-9----9--------------------------------|
D|-9-11-9-10-11---11---------------------11---11-9----11----9----------------|
A|-------------------------------------------------11----11---11-9--11-9-----|
E|---------------------------------------------------------------------------|

then do this a bunch of times and end
e|---------------------------------------------------------------------------|
B|---------------------------------------------------------------------------|
G|---------------------------------------------------------------------------|
D|-------------------------2---------------2---------------------------------|
A|-------------2--2--4--2-----4---2-2--4-------------------------------------|
E|---0----3h4----------------------------------------------------------------|

| /  slide up
| \  slide down
| h  hammer-on
| p  pull-off
| ~  vibrato
| +  harmonic
| x  Mute note
===============================================================================
Tap to rate this tab
# A B C D E F G H I J K L M N O P Q R S T U V W X Y Z